News Musica

Musica – News Mtv Italia

Le Notizie di MTV Italia

Cerca Artista o Canzone

X

Cerchi un testo di una canzone particolare ?


Too Much Too Young Too Fast

| pm palm mute
| /  slide up
| \  slide down
| h  hammer-on
| p  pull-off
| ~  vibrato
| +  harmonic
| x  Mute note
| b  Bend
Intro:
A5    G   D5   A5  G   D5    G   A5
e|-------------------3-3----------------------|
B|------3-3--3-3-----3-3--3-3--3-3------------|
G|-2-2--0-0--2-2--2--0-0--2-2--0-0--2-x-x-----|
D|-2-2--0-0--0-0--2--0-0--0-0--0-0--2-x-x-12\-|
A|-0-0--2-2-------0--2-2-------2-2--0-x-x-10\-|
E|------3-3----------3-3-------3-3----x-x-----|
A5   G   D5   A5  G   D5    G   A5   A5
e|-------------------3-3----------------------|
B|------2-2--3-3-----3-3--3-3--3-3------------|
G|-2-2--0-0--2-2--2--0-0--2-2--0-0--2-2--2-2--|
D|-2-2--0-0--0-0--2--0-0--0-0--0-0--2-2--2-2--|
A|-0-0--2-2-------0--2-2-------2-2--0-0--0-0--|
E|------3-3----------3-3-------3-3------------|
Verse: (Gtr1)                   pm
|................................................................|
e|-------------------------------------------------------------------|
B|-------------------------------------------------------------------|
G|-------------------------------------------------------------------|
D|-2-2-2-2-2-2-2-2-2-2-2-2-2-2-2-2-2-2-2-2-2-2-2-2-2-2-2-2-2-2-2-2-2-|
A|-0-0-0-0-0-0-0-0-0-0-0-0-0-0-0-0-0-0-0-0-0-0-0-0-0-0-0-0-0-0-0-0-0-|
E|-------------------------------------------------------------------|
|                                                                   |
|     (Gtr2)                  G    D5 A5 A5     G    D5 A5 A5   A5  |
e|-----------------------------3-----------------3-------------------|
B|-----------------------------3-----3-----------3-----3-------------|
G|-----------------------------0-----2-2--2------0-----2-2--2----2-2-|
D|-----------------------------0-----0-2--2------0-----0-2--2----2-2-|
A|-----------------------------2-------0--0------2-------0--0----0-0-|
E|-----------------------------3-----------------3-------------------|4x
Refrain:
G                E5 E5   G   G   G
e|-3-3-------------------------------3-|
B|-3-3----------------------3-3-3-3--3-|
G|-0-0----------------------0-0-0-0--0-|
D|-0-0--------------2-2-2-2-0-0-0-0--0-|
A|-2-2--------------2-2-2-2-2-2-2-2--2-|
E|-3-3--3-3-3-3-2-0-0-0-0-0-3-3-3-3--3-|
Chorus:
Too Much Too young....
D5 A5    G   D5   A5  G   D5    G   A5
e|---------------------3-3----------------------|
B|-3------3-3--3-3-----3-3--3-3--3-3------------|
G|-2-2-2--0-0--2-2--2--0-0--2-2--0-0--2-x-x-----|
D|-0-2-2--0-0--0-0--2--0-0--0-0--0-0--2-x-x-12\-|
A|---0-0--2-2-------0--2-2-------2-2--0-x-x-10\-|
E|--------3-3----------3-3-------3-3----x-x-----|
D5 A5    G   D5   A5  G   D5    G   A5
e|--------------------3-3----------------------|
B|-------3-3--3-3-----3-3--3-3--3-3------------|
G|--2-2--0-0--2-2--2--0-0--2-2--0-0--2-2--2-2--|
D|--2-2--0-0--0-0--2--0-0--0-0--0-0--2-2--2-2--|
A|--0-0--2-2-------0--2-2-------2-2--0-0--0-0--|
E|-------3-3----------3-3-------3-3------------|
Verse: (Gtr2)                   pm
|................................................................|
e|-------------------------------------------------------------------|
B|-------------------------------------------------------------------|
G|-------------------------------------------------------------------|
D|-2-2-2-2-2-2-2-2-2-2-2-2-2-2-2-2-2-2-2-2-2-2-2-2-2-2-2-2-2-2-2-2-2-|
A|-0-0-0-0-0-0-0-0-0-0-0-0-0-0-0-0-0-0-0-0-0-0-0-0-0-0-0-0-0-0-0-0-0-|
E|-------------------------------------------------------------------|
|                                                                   |
|     (Gtr1)                  G    D5 A5 A5     G    D5 A5 A5   A5  |
e|-----------------------------3-----------------3-------------------|
B|-----------------------------3-----3-----------3-----3-------------|
G|-----------------------------0-----2-2--2------0-----2-2--2----2-2-|
D|-----------------------------0-----0-2--2------0-----0-2--2----2-2-|
A|-----------------------------2-------0--0------2-------0--0----0-0-|
E|-----------------------------3-----------------3-------------------|4x
Refrain:
G                E5 E5   G   G   G
e|-------3-3-------------------------------3-|
B|-------3-3----------------------3-3-3-3--3-|
G|-------0-0----------------------0-0-0-0--0-|
D|-------0-0--------------2-2-2-2-0-0-0-0--0-|
A|-2b3-1-2-2--------------2-2-2-2-2-2-2-2--2-|
E|-------3-3--3-3-3-3-2-0-0-0-0-0-3-3-3-3--3-|
Chorus:
Too Much Too young....
D5 A5    G   D5   A5  G   D5    G   A5
e|---------------------3-3----------------------|
B|-3------3-3--3-3-----3-3--3-3--3-3------------|
G|-2-2-2--0-0--2-2--2--0-0--2-2--0-0--2-x-x-----|
D|-0-2-2--0-0--0-0--2--0-0--0-0--0-0--2-x-x-12\-|
A|---0-0--2-2-------0--2-2-------2-2--0-x-x-10\-|
E|--------3-3----------3-3-------3-3----x-x-----|
D5 A5    G   D5   A5  G   D5    G   A5
e|--------------------3-3----------------------|
B|-------3-3--3-3-----3-3--3-3--3-3------------|
G|--2-2--0-0--2-2--2--0-0--2-2--0-0--2-2-------|
D|--2-2--0-0--0-0--2--0-0--0-0--0-0--2-2-------|
A|--0-0--2-2-------0--2-2-------2-2--0-0-------|
E|-------3-3----------3-3-------3-3------------|
e|------------------------3---|
B|----------------3-3-3-3-3-3-|
G|----------------0-0-0-0-0-2-|
D|-----2--2--2--2-0-0-0-0-0-0-|
A|-----2--2--2--2-2-2-2-2-2---|
E|-3-2-0--0--0--0-3-3-3-3-3---|
Solo1: (Gtr1)
e|-------------------------------------------------------------------|
B|-----8h10-10-8h10-10-----8h10-10-8h10-10-----8h10-10-8h10-10-9b10--|
G|-8b9-----------------8b9-----------------8b9-----------------------|
D|-------------------------------------------------------------------|
A|-------------------------------------------------------------------|
E|-------------------------------------------------------------------|
e|------15----------15h17-15h17-17----16b17~-15----------------------|
B|-9/17----17-16b17----------------17-----------14b15-13-------------|
G|-------------------------------------------------------14-12----12-|
D|-------------------------------------------------------------14----|
A|-------------------------------------------------------------------|
E|-------------------------------------------------------------------|
e|--------------------14-15-14h15-14----15-------14-15-14h15-14----15|
B|-13b14--------16b17----------------17----16b17----------------17---|
G|-13b14-14-12-------------------------------------------------------|
D|-------------------------------------------------------------------|
A|-------------------------------------------------------------------|
E|-------------------------------------------------------------------|
e|-15----------15-15-16b17-------------------------------------------|
B|----17-15-17-------------------------------------------------------|
G|-------------------------------------------------------------------|
D|-------------------------\-----------------------------------------|
A|-------------------------\-5-5-7-5-7-5-7-5-5-4-5-4-5-4-5-4---------|
E|-----------------------------------------------------------5-3-4---|
A5         E5
e|------------------------------------------------------|
B|---------------------8---10/12-15-17-15-12-15-15b17~~-|
G|-2-2-------------9-9---9------------------------------|
D|-2-2-----2--2--2--------------------------------------|
A|-0-0-----2--2--2--------------------------------------|
E|-----3-2-0--0--0--------------------------------------|
Solo: (Gtr2)
A5    G   D5   A5  G   D5    G   A5
e|-------------------3-3----------------------|
B|------3-3--3-3-----3-3--3-3--3-3------------|
G|-2-2--0-0--2-2--2--0-0--2-2--0-0--2-x-x-----|
D|-2-2--0-0--0-0--2--0-0--0-0--0-0--2-x-x-12\-|
A|-0-0--2-2-------0--2-2-------2-2--0-x-x-10\-|
E|------3-3----------3-3-------3-3----x-x-----|
A5   G   D5   A5  G   D5    G   A5   A5
e|-------------------3-3----------------------|
B|------2-2--3-3-----3-3--3-3--3-3------------|
G|-2-2--0-0--2-2--2--0-0--2-2--0-0--2-2--2-2--|
D|-2-2--0-0--0-0--2--0-0--0-0--0-0--2-2--2-2--|
A|-0-0--2-2-------0--2-2-------2-2--0-0--0-0--|
E|------3-3----------3-3-------3-3------------|
Chorus:
Too Much Too young....
D5 A5    G   D5   A5  G   D5    G   A5
e|---------------------3-3----------------------|
B|-3------3-3--3-3-----3-3--3-3--3-3------------|
G|-2-2-2--0-0--2-2--2--0-0--2-2--0-0--2-x-x-----|
D|-0-2-2--0-0--0-0--2--0-0--0-0--0-0--2-x-x-12\-|
A|---0-0--2-2-------0--2-2-------2-2--0-x-x-10\-|
E|--------3-3----------3-3-------3-3----x-x-----|
D5 A5    G   D5   A5  G   D5    G   A5
e|-------------------3-3----------------------|
B|------3-3--3-3-----3-3--3-3--3-3------------|
G|-2-2--0-0--2-2--2--0-0--2-2--0-0--2-2-------|
D|-2-2--0-0--0-0--2--0-0--0-0--0-0--2-2-------|
A|-0-0--2-2-------0--2-2-------2-2--0-0-------|
E|------3-3----------3-3-------3-3------------|
Bridge:
Too Much,
Im gonna drink it up......
C5            D5    E5 G5
e|--------------------------------|
B|-----------------3-3-3-3-3------|
G|-5-5-5-5-5-5-5-5-2-2-2-2-2------|
D|-5-5-5-5-5-5-5-5-0-0-0-0-0-9-12-|
A|-3-3-3-3-3-3-3-4-----------7-10-|
E|--------------------------------|
Outro/solo2: (Gtr2)
A5    G   D5   A5  G   D5    G   A5
e|-------------------3-3----------------------|
B|------3-3--3-3-----3-3--3-3--3-3------------|
G|-2-2--0-0--2-2--2--0-0--2-2--0-0--2-x-x-----|
D|-2-2--0-0--0-0--2--0-0--0-0--0-0--2-x-x-12\-|
A|-0-0--2-2-------0--2-2-------2-2--0-x-x-10\-|
E|------3-3----------3-3-------3-3----x-x-----|
A5   G   D5   A5  G   D5    G   A5   A5
e|-------------------3-3----------------------|
B|------2-2--3-3-----3-3--3-3--3-3------------|
G|-2-2--0-0--2-2--2--0-0--2-2--0-0--2-2--2-2--|
D|-2-2--0-0--0-0--2--0-0--0-0--0-0--2-2--2-2--|
A|-0-0--2-2-------0--2-2-------2-2--0-0--0-0--|
E|------3-3----------3-3-------3-3------------|
Solo2/outro: (Gtr1)
e|-------------------------------------------------------------------|
B|-9b10-10-10------------------------9-10--8-8-8p7---7-7-7p5---------|
G|------------11b12-12-12-12-9/11-12---------------9---------7-7~-7~-|
D|-------------------------------------------------------------------|
A|-------------------------------------------------------------------|
E|-------------------------------------------------------------------|
e|-17-17-16h17-17-15-15-14h15-15-15-14-14-13h14-14-16-17~~--15--14---|
B|-------------------------------------------------------------------|
G|-------------------------------------------------------------------|
D|-------------------------------------------------------------------|
A|-------------------------------------------------------------------|
E|-------------------------------------------------------------------|
e|----------------------------------|
B|-5b6-5-7b8------------------------|
G|-5b6-5-7b8-5-6----------------2-2-|
D|-----------5-7-7-5------------2-2-|
A|-------------------7-6-5-3-0--0-0-|
E|----------------------------------|
End.

<!--adsense-->
Joomla SEF URLs by Artio