News Musica

Musica – News Mtv Italia

Le Notizie di MTV Italia

Cerca Artista o Canzone

X

Cerchi un testo di una canzone particolare ?


Le Vent Nous Portera

Em
Je n'ai pas peur de la route
Faudrait voir, faut qu'on à©coute
Des mà©andres au creux des reins
              D
Et tout ira bien
                 Em
Le vent l'emportera 

Ton message à  la grande ourse
Et la trajectoire de la course
A l'instantanà© de velours
                    D
Màªme s'il ne sert à  rien
                 Em
Le vent l'emportera
              D
Tout disparaà®tra
                 Em
Le vent nous portera 

La caresse et la mitraille
Cette plaie qui nous tiraille
Le palais des autres jours
              D
D'hier et demain
               Em
Le vent les portera 

Gà©netique en bandouillère
Des chromosomes dans l'atmosphère
Des taxis pour les galaxies
                    D
Et mon tapis volant lui
                Em
Le vent l'emportera
          D
Tout disparaà®tra
              Em
Le vent nous portera 

Riff: x2
    Em                                 D   

e|--7---7---7---7-8--7---7---7---5--3--5---5---5----5--8--7---7---7---7-8---------|
H|----8---8---8--------8---8---8---------7---7---7----------8---8---8-------------|
G|--------------------------------------------------------------------------------|
D|--------------------------------------------------------------------------------|
A|--------------------------------------------------------------------------------|
E|--------------------------------------------------------------------------------|

Ce parfum de nos annà©es mortes
Ceux qui peuvent frapper à  ta porte
Infinità© de destin
On en pose un, qu'est-ce qu'on en retient? 

Le vent l'emportera 

Pendant que la marà©e monte
Et que chacun refait ses comptes
J'emmène au creux de mon ombre
Des poussières de toi 

Le vent les portera
Tout disparaà®tra
Le vent nous portera

Riff: x2 (Fade Out)
    Em                                 D   

e|--7---7---7---7-8--7---7---7---5--3--5---5---5----5--8--7---7---7---7-8-|
H|----8---8---8--------8---8---8---------7---7---7----------8---8---8-----|
G|------------------------------------------------------------------------|
D|------------------------------------------------------------------------|
A|------------------------------------------------------------------------|
E|------------------------------------------------------------------------|

[Noir Desir]
Joomla SEF URLs by Artio