News Musica

Musica – News Mtv Italia

Le Notizie di MTV Italia

Cerca Artista o Canzone

X

Cerchi un testo di una canzone particolare ?


Pretty Fly (For A White Guy)

riff # X4 (last time without last three notes)    verse # X7
E-----------------------|                            E-------7---7---|
B-----------------------|                            B-------7---7---|
G---4-4-----------9-7---|                            G---------------|
D---4-4-4-7-9---9-9-7---|                            D---------------|
A---2-2-4-7-9---9-7-5---|                            A---------------|
E-------2-5-7---7-------|                            E---------------|

chorus
E--------------------------------------------------------------------------
B--------------------------------------------------------------------------
G------10111011-----10111011--7-7---7--9-9-7-------10111011-----10111011---
D---9-910111011--9-910111011--7-7-7-7--9-9-7-7--9-910111011--9-910111011---
A---9-9-8-9-8-9--9-9-8-9-8-9--5-5-7-5--7-7-5-7--9-9-8-9-8-9--9-9-8-9-8-9---
E---7-7----------7-7--------------5----------5--7-7----------7-7-----------
chorus
--------------------------------------------------------------------------
--------------------------------------------------------------------------
---7-7---7--7/9-9-7-910-9-7-----10111011-----10111011--7-7---7--9-9-7-----
---7-7-7-7--7/9-9-7-910-9-7--9-910111011--9-910111011--7-7-7-7--9-9-7-7---
---5-5-7-5--5/7-7-5-7-8-7-5--9-9-8-9-8-9--9-9-8-9-8-9--5-5-7-5--7-7-5-7---
-------5---------------------7-7----------7-7--------------5----------5---
chorus
(------------------)---------------------|
(------------------)---------------------|
(-1212-712---------)----121110---7-9-----|
(-1212-712--7-7---7)-9-9121110-9-7-9-9---|
(-1010-510--7-7---7)-9-910-9-8-9-5-7-9---|

bridge  %=pause   <<<=pick-slide
E------------------------------------|
B------------------------------------|
G---4-------2-4-----2-4-----2-4------|
D---4-------2-4-----2-4-----2-4------|
A---2-%%%%%-0-2-%%%-0-2-%%%-0-2--<<<-|
E--------------------------------<<<-|
Joomla SEF URLs by Artio