News Musica

Musica – News Mtv Italia

Le Notizie di MTV Italia

Cerca Artista o Canzone

X

Cerchi un testo di una canzone particolare ?


Fever

Intro
G-----------------------------------------------------------------------
D----------------------5------------------------------------------------
A--3----6----3---6---3---2--3----8-6--5--2------------------------------
E-----------------------------------------------------------------------
 Never know....                                                               

G-----------------------------------------------------------------------
D-------------------5---------------------------------------------------
A--3----6----3----6---------3----6----3----6----------------------------
E--------------------------------------------6--------------------------
                     [x3]

G-----------------------------------------------------------------------
D-------------------5---------------------------------------------------
A--3----6----3----6-----3----6----3----6---3---X------------------------
E----------------------------------------6------------------------------

G-----------------------------------------------------------------------
D-------5---------------------------------------------------------------
A-2-3----6---2--3--8-6--5--2--------------------------------------------
E-----------------------------------------------------------------------
 Everybody's...                                                               

G-----------------------------------------------------------------------
D-------------------5---------------------------------------------------
A--3----6----3----6---------3----6----3----6----------------------------
E--------------------------------------------6--------------------------
                    [x3]

G-----------------------------------------------------------------------
D----------------------5------------------------------------------------
A--3----6----3---6---3---2--3----8-6--5--2------------------------------
E-----------------------------------------------------------------------

Your just repeating through the song.
Joomla SEF URLs by Artio