News Musica

Musica – News Mtv Italia

Le Notizie di MTV Italia

Cerca Artista o Canzone

X

Cerchi un testo di una canzone particolare ?


Roots Radicals

 VERSE

C                 F
Took the 60 bus, out of downtown Campbell
G                      F            C
Ben Zanotto he was on there he was waiting for me
C                     F
All the punk rockers and the moon stompers
G                   F                  C
were out on the corners where they're sparing for change
C                      F
I started thinkin, ya know I started drinkin
G                   F             C
I don't really remember too much of that day
C                               F
Something struck me funny when we ran out of money
G             F                   C
Where do you go now when you're only 15?

CHORUS:
G                                 F
With the music execution and the talk of revolution
     D                D
It bleeds in me, and it goes...
C                        F        G
Give em the boot, the roots, the radicals
C                     F          G
Give em the boot, ya know I'm a radical
C                        F         G        C
Give em the boot, the roots, the reggae on my
C             G G G G G G G
stereo....

VERSE 2 (Same chords)
The radio was playing, Desmond Dekker was singing
on the 43rd bus as we climbed up the hill
nothing incoming but the reggae drumming
and we all come from unloving homes
I said "why even bother" and I picked up the bottle
hey Mr. bus driver please let these people on
rude girl carol was a miniskirt girl
my blurry vision saw nothing wrong

CHORUS

BRIDGE:
F
Yeah yeah, yeah yeah yeah yeah yeah.....
(Solo1)--10-10-10-10-10-10-10-10-10--9--9--9--9--9--9--9--9--
       ---8--8--8--8--8--8--8--8--8-10-10-10-10-10-10-10-10--
       ---9--9--9--9--9--9--9--9--9--8--8--8--8--8--8--8--8--
       ------------------------------------------------------
       ------------------------------------------------------
       ------------------------------------------------------
F
yeah yeah, yeah yeah yeah yeah yeah.....
                                      1/2
(Solo2)---------------------------------^--------------------
       ---------------------------------|--------------------
       --11---8---10---11---8---10---11/---10---8------------
       ---------------------------------------------10-------
       ------------------------------------------------------
       ------------------------------------------------------
yeah yeah, yeah yeah yeah yeah yeah.....
(do Solo1)

F                               D
yeah yeah, yeah yeah yeah yeah yeaaaaaaah!

VERSE 3:
Took the 60 bus out of downtown Campbell,
Ben Zanotto he was on there he was waiting for me
All the punk rockers, and the moon stompers
were out on the corner where they're sparing for change
I said the radio was playin, Desmond Dekker was singing
on the 43rd bus as we climbed up the hill
rude girl carol was a miniskirt girl,
my blurry vision saw nothing wrong

CHORUS

OUTRO

[Rancid]
Joomla SEF URLs by Artio