News Musica

Musica – News Mtv Italia

Le Notizie di MTV Italia

Cerca Artista o Canzone

X

Cerchi un testo di una canzone particolare ?


Californication

---Intro---

------------------------------------------------------------
--------0--1------------------------------------------------
----------------------------0---2---------------------------
-----2--------0--1------------------------------------------
--0---------------------3-----------------------------------
---------------------1--------------------------------------
x4

---End of Verse---

"And if you want these kind of dreams it's Californication"
----------------------------------------------------------1-
--------5-------------------------------------------------3-
------------------------4---------------2----------3------2-
----5-----5------------------------------------0----------0-
-3------------------5-------5-------3------3----------------
---------------3----------------1---------------------------

---Guitar solo---

------9------------------------9----------------------------
--10----------------------10--------------------------------
----------11^(11)-----------------11^(11)-------------------
------------------------------------------------------------
------------------------------------------------------------
------------------------------------------------------------

------------------------------------------------------------
------------------------------------------------------------
------11-------11--11--11---11p9-----9--11^11--9------------
--------------------------------------------------11--(11)--

-------9---12---14---(14)-----------9---12---14---(14)------
--10---------------------------10---------------------------
------------------------------------------------------------
------------------------------------------------------------
------------------------------------------------------------
------------------------------------------------------------

---17---16---14--------14-----------------------------------
------------------17--------17---14---17---14---14^---14^---
------------------------------------------------16^---16^---
------------------------------------------------------------
------------------------------------------------------------
------------------------------------------------------------

--------------------------14^(14)--12------12---------------
--(14)14^----17---14--(14)-------------14------14---12------
------------------------------------------------------------
------------------------------------------------------------
------------------------------------------------------------
------------------------------------------------------------

--------12----10----9---------------------------------------
---10-------------------10----------------------------------
------------------------------------------------------------
------------------------------------------------------------
------------------------------------------------------------
------------------------------------------------------------
Joomla SEF URLs by Artio