News Musica

Musica – News Mtv Italia

Le Notizie di MTV Italia

Cerca Artista o Canzone

X

Cerchi un testo di una canzone particolare ?


Otherside

Intro
   Am          F             C             G
e|---------------------------------------------------|
B|---------------------------------------------------|
G|-------------2---2--4-2-0--------------------------|
D|-2---2---2-----------------2-------------0---0--0--|
A|-0------0-0----------------3-----------------------|
E|-------------1---1-----------------------3---3--3--|

Chorus
   Am          F             C             G          2x
e|---------------------------------------------------|
B|---------------------------------------------------|
G|-------------2---2--4-2-0--------------------------|
D|-2---2---2-----------------2---2--2-2-2--0---0--0--|
A|-0------0-0----------------3---3--3-3-3------------|
E|-------------1---1-----------------------3---3--3--|

   Am          F             C             G           1:st chorus
e|---------------------------------------------------| ending
B|---------------------------5---5--5----------------|
G|-------------2---2--2--------------------4---4--4--|
D|-2---2--2------------------------------------------|
A|-0-----0-0-----------------3---3--3----------------|
E|-------------1---1--1--------------------3---3--3--|

   Am          F            C             G          2:nd chorus
e|-----------------------------------------3-3-3-3--| ending
B|---------------------------5---5--5---------------|
G|-------------2---2--2-----------------------------|
D|-2---2--2-----------------------------------------|
A|-0-----0-0-----------------3---3--3---------------|
E|-------------1---1--1--------------------3-3-3-3--|

   E                                                         2x
e|----------------------------------------------------------|
B|----------------------------------------------------------|
G|-9---9---9------9---9---9------12---9---9------9---9---9--|
D|-9---9---9---------------------12---9---9-----------------|
A|-7---7---7--------------------------7---7-----------------|
E|----------------------------------------------------------|
  Turn me on take me for a hard ride....

   Am             E
e|-----------------------------------------------------------------|
B|-----------------------------------------------------------------|
G|----------------9---9--9-9-9-12-9---9--9-9-9-12-9---12-9---12-9--|
D|-7---7--7-7-7----------------------------------------------------|
A|-----------------------------------------------------------------|
E|-----------------------------------------------------------------|
Joomla SEF URLs by Artio