News Musica

Musica – News Mtv Italia

Le Notizie di MTV Italia

Cerca Artista o Canzone

X

Cerchi un testo di una canzone particolare ?


Scar Tissue

Intro:   F  C  Dm  C  F  C  Dm
E-----------------------------------------------|
B-----10--10--10--10--10----5-5/6--6--6-6-6/5---|
G-----------------------------------------------|
D-----------------------------------------------|
A---8---8---8---8---8-------3-3/5--5-5-5-5/3----|
E-----------------------------------------------|

E-----------------------------------------------|
B-----10--10--10--10--10--8--5/6---6p8-6p8------|
G-----------------------------------------------|
D-----------------------------------------------|
A----8---8---8---8---8-------3/5----------------|
E-----------------------------------------------|

F
 Scar tissue that I wish you saw
Dm
 Sarcastic mister know it all
F
 Close your eyes and I'll kiss you 'cause
     Dm
 With the birds I'll share

F
 With the birds I'll share
     Dm
 This lonely view
F
 With the birds I'll share
     Dm
 This lonely view

F
 Push me up against the wall
Dm
 Young Kentucky girl in a push-up bra
F
 Fallin' all over myself
   Dm
 To lick your heart and taste your health 'cause

F
 With the birds I'll share
     Dm
 This lonely view
F
 With the birds I'll share
     Dm
 This lonely view

INTERLUDE
    Dm                         C           Dm        Em
E-------|------------|----------|--------|-------------|
B-13\10-|-10-(10)----|-10\8--8--|--8\10--|-10-10\12\13-|
G-------|------------|----------|--------|-------------|
D-------|------------|----------|--------|-------------|
A-------|------------|----------|--------|-------------|
E-------|------------|----------|--------|-------------|

F
 Blood loss in a bathroom stall
Dm
 Southern girl with a scarlet drawl
F
 Wave goodbye to ma and pa 'cause
     Dm
 With the birds I'll share

F
 With the birds I'll share
     Dm
 This lonely view
F
 With the birds I'll share
     Dm
 This lonely view

F
 Soft spoken with a broken jaw
Dm
 Step outside but not to brawl
F
 Autumn's sweet we call it fall
     Dm
 I'll make it to the moon if I have to crawl and

F
 With the birds I'll share
     Dm
 This lonely view
F
 With the birds I'll share
     Dm
 This lonely view

GUITAR SOLO
        D5                                       C5
E------------------------|---------------|--------------|
B--(13)\15----15\13--13\-|10--------10\8-|--8---13\--10-|
G------------------------|---------------|--------------|
D------------------------|---------------|--------------|
A------------------------|---------------|--------------|
E------------------------|---------------|--------------|

   D5
E----------|-----------------------|-------------------|
B(10)------|-(13)\15-------17---13\|10-10--(10)\13\8---|
G----------|-----------------------|-------------------|
D----------|-----------------------|-------------------|
A----------|-----------------------|-------------------|
E----------|-----------------------|-------------------|

    C5                         D5                    E5
E-------------------------|-----------------------------|
B---8----------13\----10--|------------15\17----17\18---|
G-------------------------|-----------------------------|
D-------------------------|-----------------------------|
A-------------------------|-----------------------------|
E-------------------------|-----------------------------|

F
 Scar tissue that I wish you saw
Dm
 Sarcastic mister know it all
           F
 Close your eyes and I'll kiss you 'cause
     Dm
 With the birds I'll share

F
 With the birds I'll share
     Dm
 This lonely view
F
 With the birds I'll share
     Dm
 This lonely view

FINAL SOLO

E-----17---17---|-------------17--------|---------------|
Bù(20)---20ù-20v|vvvvvvvv-(20)--17ù17vvv|vvvvvvù17\18s15|
G---------------|-----------------------|---------------|
D---------------|-----------------------|---------------|
A---------------|-----------------------|---------------|
E---------------|-----------------------|---------------|

E--------------------------|----------------------------|
B-15ù-15\13--13/15ù-15\13--|--13\15ù15----15\13ù13|\10--|
G--------------------------|----------------------------|
D--------------------------|----------------------------|
A--------------------------|----------------------------|
E--------------------------|----------------------------|

E------|------------|-------|
Bù13\\\|8-----13\\\\|10-----|
G------|------------|-------|
D------|------------|-------|
A------|------------|-------|
E------|------------|-------|

E-----------------|------------|------------------------|
B-----------------|------------|------------------------|
G--------------14-|-----14ù14--|----14------------------|
D----12/14\12-----|------------|--------14\12---14\\10ù-|
A-----------------|------------|------------------------|
E-----------------|------------|------------------------|

E-----------------|-------------|-----------------------|
B-----------------|---------18\\|17ù17ù-12/13\12/15--10-|
G-----------------|--14---------|-----------------------|
Dù10---10/12------|-------------|-----------------------|
A------------12---|-------------|-----------------------|
E-----------------|-------------|-----------------------|

E----------------|-------------|
Bù13\10\8-----8//|10vvvvvvvv---|
G----------------|-------------|
D----------------|-------------|
A----------------|-------------|
E----------------|-------------|
Joomla SEF URLs by Artio