News Musica

Musica – News Mtv Italia

Le Notizie di MTV Italia

Cerca Artista o Canzone

X

Cerchi un testo di una canzone particolare ?


Gli Angeli

INTRO:

[DO7+]                        [REadd9/DO]
e--------------0-----0-------------------0----0----------
B--------0-------------0------------3-----------3--------
G------0-----0-----------0--------2----2----------2------
D----2---------------------2----4-------------------4----
A--3--------------------------3-----------------------3--
E--------------------------------------------------------

[SOL]                          [MIm9]
e---------------------------------------------0----------
B--------------3---------------------3----------3--------
G--------0---------0---------------0---0----------0------
D------0-----0---------0---------4-------4----------4----
A----2-------------------------2----------------------2--
E--3-----------------3---3-2-0---------------------------
A M         m     A   A P   I A   M   A     M    A I

(come INTRO)
Do7+
Quello che si prova
REadd9/DO
non si puo' spiegare qui
SOL
hai una sorpresa
      Mim9
che neanche te lo immagini

Dietro non si torna
non si puo' tornare giu'
quando ormai si vola
non si puo'cadere piu'

Vedi tetti e case
e grandi le periferie
e vedi quante cose
sono solo fesserie

D-------0---
A--0h2------
E---------0-

Mim    Mim9
E da qui...
LA7/4  Lam7
ee da qui...
Re                       Sol
qui non arrivano gli angeli
       RE/FA#        Mim
con le lucciole e le cicale

ee da qui...
ee da qui...
Re          Re/Do             Sol
non le vedi piu' quelle estati lì
Re/Fa#          Do7+
quelle estati li

(STRUMENTALE)
[DO7+]      [SImb6]                [LAm7]     [MIm9]
e---------0-------------------------------------------------------
B-------------------------3---------------1---------------3-------
G-----0-------0-------0-------0-------0-------0-------0-------0--- (x2)
D---2---2---2---2---4---4---4---4---2---2---2---2---4---4---4---4-
A-3---------------2---------------0-------------------------------
E-------------------------------------------------0---------------

[DO7+]        [SImb6]          [LAm7]         [SOL]
e---------0-----------------------------------------------3-------
B-------------------------3---------------1-----------------3-----
G-----0-------0-------0-------0-------0-------0---------0-----0---
D---2---2---2---2---4---4---4---4---2---2---2---2---------------0-
A-3---------------2---------------0-------------------------------
E-------------------------------------------------3---------------

[DO7+]       [SImb6]          [LAsus2]
e---------0----------------------------0--
B-------------------------3-----------0---
G-----0-------0-------0-------0------2----
D---2---2---2---2---4---4---4---4---2-----
A-3---------------2----------------0------
E-----------------------------------------

Qui e' logico - cambiare mille volte idea
ed e' facile - sentirsi da buttare via
Qui non hai la scusa - che ti puo' tenere su
qui la notte e'buia - e ci sei soltanto tu
Vivi in bilico - e fumi le tue Lucky Strike
e ti rendi conto -di quanto le maledirai

ee da qui...
ee da qui...
qui non arrivano gli ordini
a insegnarti la strada buona
ee da qui...
ee da qui...
qui non arrivano gli angeli

[DO7+] [SImb6] [LAm7] [MIm9] (x2)
[DO7+] [SImb6] [LAm7] [SOL]
[DO7+] [SImb6] [LAsus2]
(a sfumare)
Joomla SEF URLs by Artio