News Musica

Musica – News Mtv Italia

Le Notizie di MTV Italia

Cerca Artista o Canzone

X

Cerchi un testo di una canzone particolare ?


Bullet With Butterfly Wings

Intro:
|--------------------------------------------------
|-0--0----------------------------------0--0-------
|-4--4----------4--------------------4--4--4--4----
|-4--4-----4-4--4--------------4-----4--4--4--4--4-
|-2--2--0--2-2--2--2--2--2--2--2-----0--0--0--0--0-
|---------------3--3--0--0--0--0--0----------------

The world is a vampire, sent to drain
Secret destroyers, hold you up to the flames
And what do I get, for my pain?
Betrayed desires, and a piece of the game

Pre Chorus:
|--------------------------------------------------
|-0--0----------------------------------0--0-------
|-4--4----------4--------------------4--4--4--4----
|-4--4-----4-4--4--------------4-----4--4--4--4--4-
|-2--2--0--2-2--2--2--2--2--2--2-----0--0--0--0--0-
|---------------3--3--0--0--0--0--0----------------

Even though I know - I suppose I'll show
All my cool and cold - like old job

Chorus Riff (distorted) (Guitars 1 and 2)
|-------------------------------------------------------------------
|-------------------------------------------------------------------
|-----------------6-6-7--7--7-----------------------------------x-x-
|-9---9--7--5--5--6-6-7--7--7--5-5-7---7----0-14\---------------x-x-
|-9---9--7--5--5--4-4-5--5--5--5-5-7---7----0-14\-----------0-0-x-x-
|-7---7--5--3--3---------------3-3-5---5--0---12\---0--3------------

Chorus:
B5          A5 G5    C#5 D5           A5       Em     G5
Despite all my rage I am still just a rat in a cage
B5          A5 G5    C#5 D5           A5       Em     G5
Despite all my rage I am still just a rat in a cage
B5           A5   G5      C#5 D5       A5       Em     G5
Then someone will say what is lost can never be saved
B5          A5 G5    C#5 D5           A5       Em     G5    Em    F#5
Despite all my rage I am still just a rat in a cage

Chorus End
|-------------------------------
|-------------------------------
|-------------------------------
|--9\------5-------4------------
|--9\--------------4------------
|--7\---0-------0--2--0--2/5----

Same as intro:
Now I'm naked, nothing but an animal
But can you fake it, for just one more show?
And what do you want?
I want to change
And what have you got, when you feel the same?

Same as pre-chorus:
Even though I know - I suppose I'll show
All my cool and cold - like old job

B5          A5 G5    C#5 D5           A5       Em     G5
Despite all my rage I am still just a rat in a cage
B5          A5 G5    C#5 D5           A5       Em     G5
Despite all my rage I am still just a rat in a cage
B5           A5   G5      C#5 D5       A5       Em     G5
Then someone will say what is lost can never be saved
B5          A5 G5    C#5 D5           A5       (B5 Em F#5 G5   B5 Em F#5 A5) x 4
Despite all my rage I am still just a rat in a cage

Em      G5  C#5 D5   A5
Tell me I'm the only one
Em      G5     C#5 D5    A5
Tell me there's no other one
Em    G5  C#5 D5   A5
Jesus was the only son, yeah.
Em      G5  C#5 D5     A5
Tell me I'm the chosen one
Em    G5  C#5 D5   A5  Em  G5  F#5
Jesus was the only son for you

No distortion
B5          A5 G5    C#5 D5           A5       Em     G5
Despite all my rage I am still just a rat in a cage
B5    A5    G5      C#5  D5    A5    Em    G5
And I still believe that I cannot be saved
                                      (Kick in the distrotion)
B5      A5  G5       C#5 D5    A5     Em       G5
Despite all my rage I am still just a rat in a cage
B5      A5        G5     C#5  D5       A5
Despite all my rage am I still just a rat in a-
B5      A5        G5     C#5  D5       A5
Despite all my rage am I still just a rat in a-
B5      A5        G5     C#5  D5       A5      C5  G5  D5 A5
Despite all my rage am I still just a rat in a cage

Em      G5  C#5 D5   A5
Tell me I'm the only one
Em      G5     C#5 D5   A5
Tell me there's no other one
Em    G5  C#5 D5   A5
Jesus was the only son

[x4]
B5    A5    G5         C#5 D5        A5
And I still beleive that I cannot be saved

Em  G5   F#5
Joomla SEF URLs by Artio