News Musica

Musica – News Mtv Italia

Le Notizie di MTV Italia

Cerca Artista o Canzone

X

Cerchi un testo di una canzone particolare ?


Story Of My Life

Intro-solo:
E[----------------------------------------------------|
B[----------------------------------------------------|
G[----------------------------------------------------|
D[----------------------------------------4-6--4-6/8--|
A[----1-2--6-4--4-4--4h6p4--------1-2-4/6-------------|
E[--2----------------------6-4--2---------------------|

|--------------------------------------------------------------6--|
|-------------------------------------7------7----------7--9-9----|
|---------------------6--6h8p6--6-6h8----6h8----6-8---------------|
|--6h8p6-4---4--4-6/8---------------------------------------------|
|----------6------------------------------------------------------|
|-----------------------------------------------------------------|

G   C   D   D

G             C                D
High School seemed like such a blur
G                    C         D
I didn't have much interest in sports or school election
G              C            D
and in class I dreamed all day
G                   C      D
'bout a rock & roll weekend.

Chorus---
G        C       D
Life goes by so fast
G              C                     D
you only wanna do whatcha think is right.
G           C            D
Close your eyes and its past.
G           C          D
Story of my life.


[Social Distortion - Story Of My Life]

2.
Well I went downtown to look for a job
I had no training no experience to speak of
and I looked at the holes in my jeans
and turned and headed back.

3.
Well I went down to the old neighborhood
the faces had all changed nobody left to talk to
and the pool hall I loved as a kid
is now a 7/11.

4.
Good time come and good times go.
I only wish the goodtimes would last a little longer.
I was thinking of the good times we had
and why they had to end...........
So I sit at the edge of my bed
I strum my guitar and I sing an outlaw love song.
Thinking of what your doing now
and when your coming back.
Joomla SEF URLs by Artio