News Musica

Musica – News Mtv Italia

Le Notizie di MTV Italia

Cerca Artista o Canzone

X

Cerchi un testo di una canzone particolare ?


Black Hole Sun

Intro:
======

E----------------|-----------|-----------------|------------|
B-------3--------|-------3---|-------3---------|-------2----|
G-----2----2-----|-----2-----|-----0----0------|------------|
D---2--------2---|---2-------|---0--------0----|-----4------|
A-0------------0-|-3---------|-----------------|---4--------|
E----------------|-----------|-3-------------0-|-2--------0-|

E----------------|-----------|
B----------------|-----------|
G-------3--------|--------4--|
D-----3----3-----|------2----|
A---3--------3---|----5------|
E-1------------1-|--0--------|

Verses:  (Note:  Bass note appears below)
=======

E----------14-------|-------12--|--------15--------|-------14--|
B-------14----14----|----13-----|-----15----15-----|----14-----|
G----14----------14-|-14--------|--12----------12--|-14--------|
D-------------------|-----------|------------------|-----------|
A-------------------|-----------|------------------|-----------|
E-------------------|-----------|------------------|-----------|
  A                   C            G                 F#

E--------13----------|--------12----------|-------14----------12----|
B-----13----13----13-|-----12----12----12-|----14----14----12----12-|
G--14----------14----|--14----------14----|-14----------12----------|
D--------------------|--------------------|-------------------------|
A--------------------|--------------------|-------------------------|
E--------------------|--------------------|-------------------------|
   F                    E                   A           G

E--------13--|
B-----15-----|
G--15--------|
D------------|
A------------|
E------------|
   Bb

Chorus:
=======

"Black hole..."

E-------------------|---------------|------------------|
B-------------------|---------------|------------------|
G----------3--------|--------4------|------2-------2---|
D--------3-----3----|------2---2----|----2---2---2---2-|
A------3---------3--|----5-------5--|--0---------------|
E----1--------------|--0------------|----------3-------|

"...sun    won't you  come        and ....

E------------------|------------------|-----------------|
B----------5-------|------------------|-----------------|
G-------5-----5----|--------3---------|--------4--------|
D-----5---------5--|------3-----3-----|------2----2-----|
A---3--------------|----3----------3--|----5---------5--|
E------------------|--1---------------|--0--------------|

  "rain.  Black hole sun     won't you ...

After the FIRST chorus

E------------------|------|
B---7---7h8p7------|--9---|
G---7---7-----7----|--9---|
D---7---7-------7--|--9---|   then back to verse
A---5---5----------|--7---|
E------------------|--0---|
  "come"

After the SECOND and THIRD chorus

E----------------|---------|
B---7--7h8p7-----|--5--5---|
G---7--7-----7---|--5--5---|    then repeat chorus once
D---7--7-------7-|--5--5---|
A---5--5---------|--3--3---|
E----------------|---------|
  "come"
                       "Black hole..."
Joomla SEF URLs by Artio