News Musica

Musica – News Mtv Italia

Le Notizie di MTV Italia

Cerca Artista o Canzone

X

Cerchi un testo di una canzone particolare ?


Rusty Cage

Intro:
|----------------------|--------|-------------------------|-----|
|----------------------|--------|-------------------------|-----|
|-------------14h16p14-|-(14)---|-------14h16-------14h16-|-(16)|
|----------------------|--------|-------------------------|-----|
|-12/14-14h16----------|--------|-12/14-------12/14-------|-----|
|----------------------|--------|-------------------------|-----|

Hold last notes of each bar a while longer first few times.

First and Second Verses:

|-----------------------|--------------------------|
|-----------------------|--------------------------|
|-----------------------|--------------------------|
|-----------------------|--------------------------|
|-------------12h14p12--|-------12h14-------12h14--|
|-10/12-12h14-----------|-10/12-------10/12--------|

That is what Kim plays. You could also play the first two verses THIS way to
make it easier.

|-----------------|-----------------|
|-----------------|-----------------|
|-----------------|-----------------|
|-7/9-9/11-7h9-7--|-7h9-7h9-7h9-7h9-|
|-----------------|-----------------|
|-----------------|-----------------|

End of each verse:
|-------------------|---------------|---------------------------|
|-------------------|---------------|---------------------------|
|-------------------|---------------|---------------------------|
|-------------------|---------------|---------------------------|
|-------------------|---------------|---------------------------|
|-15--15--7/12--10--|-(10)----------|-6--6-5-5-3-3-0-0-3-3-3~~--|

Third Verse:
|-------------------------|-------------------------|
|-------------------------|-------------------------|
|-------------------------|-------------------------|
|-------------------------|-------------------------|
|-------------------------|-------------------------|
|-0--0-0-0--0-0-3-5-6-7-3-|-0--0-0-0--0-0-3-5-6-7-3-|

Play the above riff a few times and then play this when Chris starts singing
about 3 times then go to the next verse part.

|-------------------------|-------------------|------------------
|-------------------------|-------------------|------------------
|-----------------------4-|-(4)---------2-----|------------------
|-----------------------4-|-(4)---------2-----|------------------
|-----------------------2-|-(2)---------0-----|------------------
|-0--0-0-0--0-0-3-5-6-7---|-------7-6-5-----3-|-0--0-0-0-3-5-6-7-

Fourth Verse Part:
||------------------------------------------------||
||------------------------------------------------||
||o----------------------------------------------o||
||o----------------------------------------------o||
||------------------------------------------------||
||-0---3b-0--5b-0--0-3b-0-3-/6~-3b-0---0-3b-0-5---||

and then finish up with this:

|-------------------|------------------------|
|-------------------|------------------------|
|---------------16~~|~(16)~~~~~~~~~~~~~------|
|-------------------|------------------------|
|-------------------|------------------------|
|-15--15--7/12--10--|------------------------|
Joomla SEF URLs by Artio