News Musica

Musica – News Mtv Italia

Le Notizie di MTV Italia

Cerca Artista o Canzone

X

Cerchi un testo di una canzone particolare ?


Little Miss Can't Be Wrong

Drum intro
Intro:
     (G)        (D)         (C)
e]-3--------3---10----------8-----
B]-3--------3---10----------8-----
G]---5-3h4---------12--8h9--------
D]--------------------------------
A]--------------------------------
E]--------------------------------

     (G)                     (D)          (C)
e]-3---------------------------------------------
B]-3--------3------------------------------------
G]---5-3h4----5-(b. up whole)-5r3---3------------
D]--------------------------------5---5r3---3-5--
A]----------------------------------------5------
E]-----------------------------------------------

     (G)        (D)         (C)
e]-3--------3---10----------8-----
B]-3--------3---10----------8-----
G]---5-3h4---------12--8h9--------
D]--------------------------------
A]--------------------------------
E]--------------------------------

     (G)              (D)           (C)
e]---3---------------------------------------
B]---3--6p3---3------------------------------
G]----------5---5-5p3---3--------------------    ]- this is just a run /
D]--------------------5---5p3-------3---3-5--   fill in the G blues
A]----------------------------5-3-5---5------     scale - he changes it
E]-------------------------------------------     around in concert,

Verse:
     G                           D       C
Been a whole lot easier since the bitch left town
     G                           D       C
Been a whole lot happier without her face around
     G                           D       C
Nobody upstairs gonna stomp & shout
     G                           D       C
Nobody at the back door gonna through my laundry out
     G                           D       C
She hold the shot gun while you dose e doe
    G                           D       C
She want one man made of Hercules and Cyereno

Interlude: 8 Times= (last 4 times with more  syncopation

(G  A#  C) 8x A#

the chorus follows the verses (G D C)

Little Miss Little Miss Little Miss Can't be Wrong
ain't nobody gonna bow no more when you shout your song
Little Miss Little Miss Little Miss Can't be Wrong
Watcha gonna do to get into another one of these here rock 'n' roll songs

Instrumental:
    LITTLE MISS CANT BE WRONG (Guitar Break)
   =========================================

-------------------------------]
--18---------------------------]
-----17-------------3-5-3------]
--------17-15\---/5-------5-5--]
-------------------------------]
-------------------------------]
   ~  ~  ~              ^ . ~

----------------------------------------------------------------]
-----------20---------15-15-15--------15------------------------]
----------------17b19----------17b19-----17b18r17-15------------]
-5/////17---------------------------------------------17-17-----]
----------------------------------------------------------------]
----------------------------------------------------------------]
long slide  ~                                          .  ~

-----------------------------------------15--]
-----------18b20-------------------------15--]
--17-15-17---------19r17-15-17b19-17b19------]
---------------------------------------------]
---------------------------------------------]
---------------------------------------------]
         .     ~                .
                                         noise

------------------------------------------------]
--18b20-20r18-15---18b20-20r18p15-----15----15--]
----------------------------------17-----17-----]
------------------------------------------------]
------------------------------------------------]
------------------------------------------------]
                                             .
\----------------------------------/
  these two licks go together
  and sound similar

---------------------------------------------------------18-18-18-18-18-20-]
18-15-----------15-------15-------15--/18-18-18-18-18-18-------------------]
------17--17b19----17b19----17b19------------------------------------------]
---------------------------------------------------------------------------]
---------------------------------------------------------------------------]
---------------------------------------------------------------------------]
                                                                           .
--More--(75%)[Press space to continue, 'q' to quit.]
\--------/                             \----------------------------------/
  subtle                                 real-fast-picking

--20b22--22r20-18----------------------------------------------------------]
------------------20-18----------------------------------------------------]
------------------------20-18-15\------------------------------------------]
---------------------------------\-----------------------------------------]
----------------------------------\----------------------------------------]
-----------------------------------\---------------------------------------]

[Spin Doctors]
Joomla SEF URLs by Artio