News Musica

Musica – News Mtv Italia

Le Notizie di MTV Italia

Cerca Artista o Canzone

X

Cerchi un testo di una canzone particolare ?


Whatever You Want

Intro
E|---3-----3-----------3-------2------2---3-----2---|
B|-1---1-----1-0h1p0-----0-------3------3---3-----3-|
G|-------0-----------0-----0-------2----------2-----|
D|---------------------------0----------------------|
A|--------------------------------------------------|
D|---------------------------0----------------------|

E|---3-----3-----------3-------2------2---3-----2---|
B|-1---1-----1-0h1p0-----0-------3------3---3-----3-|
G|-0-----0-----------0-----0-------2----------2-----|
D|-0-------------------------0----------------------|
A|--------------------------------------------------|
D|---------------------------0----------------------|

E|----------------------------------5--5-----------------------|
B|---3-----3-----3----------------3-6----6---------------------|
G|-----0-----0-----0--------------2-5------5-------------------|
D|--------------------------------0-0--------0-----------------|~ = Let Ring
A|-3-----3-----2-----2-------------------------0---------------|
D|--------------------------3p2p0----------------0~~~~~~~~~~~~-|

E|-------------------------|
B|-------------------------|
G|-------------------5-----|
D|-------------------5-----|And so on until verse
A|-------------------------|
D|-0-0--0-0--0-0--0-0--0-0-|

Verse:

E|------------------------------------------------------------------|
B|------------------------------------------------------------------|
G|------------------------------------------------------------------|
D|------------------------------------------------------------------|
A|--------------------0--0-0--0-0--0-0--0-0--0-0--0-0--0-0--0-0--0-0|
D|--------------------0--0-0--0-0--0-0--0-0--0-0--0-0--0-0--0-0--0-0|
"Whatever You Want"

AND SO ON UNTIL...

E|-------------------------------------|
B|-------------------------------------|
G|-------------------------------------|
D|--------------7--7-7--7-7--7-7--7-7--|
A|--------------7--7-7--7-7--7-7--7-7--|
D|--------------7--7-7--7-7--7-7--7-7--|
"Whatever You Need"

AND SO ON UNTIL...

E|----------------------------------------------------------------|
B|----------------------------------------------------------------|
G|----------------------------------------------------------------|
D|----------------------------------------------------------------|
A|----------------------------------------------------------------|
D|------------------0--0-0--0-0--0-0--0-0--0-0--0-0--0-0--0-0--0-0|
"Whatever You Win"

Then repeat for the next verse.

Chorus:

E|-1--1---1---1----------------------------------------------------------------|
B|-1--1---1---1----------------------------------------------------------------|
G|-2--2---2---2----------------------------------------------------------------|
D|-3--3---3---3----10-----10-----10---------------------12---------------------|
A|-----------------10-----10-----10------------0--------12---0-15---0-12---0-12|
D|-----------------10-----10-----10-----0----0-0----0-0-12-0-0-15-0-0-12-0-0-12|
"I can take you home on the midnight train again"

E|-1-1----1---1--------------------------------------------------------------|
B|-1-1----1---1--------------------------------------------------------------|
G|-2-2----2---2--------------------------------------------------------------|
D|-3-3----3---3--10~~~~~~~~------------14-14-14-14-14-14-14-14-14-14-14-14-7-|
A|---------------10~~~~~~~~9~~~~~~~~~~~14-14-14-14-14-14-14-14-14-14-14-14-7-|
D|---------------10~~~~~~~~9~~~~~~~~~~~14-14-14-14-14-14-14-14-14-14-14-14-7-|
"I can make an offer you can't refuse"

The chords for the solo are as follows:

Eb   F   F/G   C   E   G/A   A
E|---------5---------------------|
B|---------6-------------0-------|
G|---------5-------------0-------|
D|11---3---------10--2---0-----7-|
A|11---3---------10--2---0-----7-|
D|11---3---------10--2---------7-|

Guitar Solo:
    F
E|------------------------------------13----------13------------------------|
H|---------------------------------13----------13---------------------------|
G|------13-13-------13-13----15b17-------15b17-------15b17r15-13----13------|
D|-13h15------13h15-------15-------------------------------------15----(15)-|
A|--------------------------------------------------------------------------|
E|--------------------------------------------------------------------------|

                          G
E|---------------------------------15--------------|
H|------------------------------15----18p15--------|
G|------------------------17b19-------------17-15--|
D|-13-13-------13-13-------------------------------|
A|-------13h15-------15----------------------------|
E|-------------------------------------------------|

   C                        F
E|---------8-----------------------------------------------|
H|-------8---11p8------------------------------------10-13-|
G|-10b12----------10-8h9-------------------10--10-12-------|
D|-----------------------10----------10-12-----------------|
A|--------------------------8--8-/12-----------------------|
E|---------------------------------------------------------|

   E                      A
E|-13-12-10----------------------------------------|
H|----------13b15r13-12--15/15b17-15-15b17---------|
G|-------------------------------------------------|
D|-------------------------------------------------|
A|-------------------------------------------------|
E|-------------------------------------------------|
Joomla SEF URLs by Artio