News Musica

Musica – News Mtv Italia

Le Notizie di MTV Italia

Cerca Artista o Canzone

X

Cerchi un testo di una canzone particolare ?


Born To Be Wild

Verse:

e------------------------------------0--0--|
B-------------------------2--3--3--3-------|
G------------0-----------------------------|
D-2--2--2--2---2---------------------------|
A------------------------------------------|
E------------------------------------------|
get your motor running, Head out on the highway

e---------------------------0--0--0--------------|
B----------------------2--3---------0------------|
G------0---2--0-----------------------0----------|
D-0--2---2---------------------------------------|
A------------------------------------------------|
E------------------------------------------------|
Lookin' for adventure, and whatever comes our way

e-3--2--0--0--0--0----------0---3---------------------------3--|
B------------------3--3--3------0---3--3--2--2--0--2--0--0--0--|
G-------------------------------0---------------------------0--|
D--------------------------------------------------------------|
A--------------------------------------------------------------|
E--------------------------------------------------------------|
yeah darlin' gonna make it happen, take the world in a love embrace

e--------------------------3-----------------------|
B-3--2--0---0-----------0--0----3--2--0-----0----0-|
G---------2-----0--0-------0------------2------3---|
D--------------------------------------------------|
A--------------------------------------------------|
E--------------------------------------------------|
fire all the guns at once and...explode into space

e-0--3--0---0--------0--------------0-------0--0--0---0---|
B---------------3-------3--0--0--3------------------------|
G---------------------------------------------------------|
D---------------------------------------------------------|
A---------------------------------------------------------|
E---------------------------------------------------------|
Like a true nature's child, we were born, born to be wild

E--------0------0-------3--2--0----0--2--|
B-0--3---2---2--------0------------------|
G----------------------------------------|
D----------------------------------------|
A----------------------------------------|
E----------------------------------------|
we can climb so high, i never want to die

CHORUS:
e
E-0---0---0----------|
B-0----------3--2--3-|
G-1----------2-------|   X4 (end on E)
D------------0-------|
A--------------------|
E--------------------|
Joomla SEF URLs by Artio