News Musica

Musica – News Mtv Italia

Le Notizie di MTV Italia

Cerca Artista o Canzone

X

Cerchi un testo di una canzone particolare ?


Psycho Killer

Intro:
	G                                 ^ ^
e|--------||:5-5-5-5-5-5-5-5-5-5-5-5-5-5-88888:||
B|--------||:5-5-5-5-5-5-5-5-5-5-5-5-5-5-77777:||
G|--------||:---------------------------------:|| (2X)
D|--------||:---------------------------------:||
A|--------||:---------------------------------:||
E|--------||:---------------------------------:||

Over the verse, the lead just arpeggios an A7 chord,
(starts on the second beat, and the three note riff is played
3 times over two measures, just like this:

e||:----0---------0|--------0-----:||
B||:-------2-------|-2---------2--:||
G||:-0--------0----|----0---------:|| (4X)
D||:---------------|--------------:||
A||:---------------|--------------:||
E||:---------------|--------------:||

[A] I can't seem to face up to the facts [G]
[A] I'm tense and nervous and I can't relax [G]
[A] I can't sleep cause my bed's on fire [G]
[A] Don't touch me I'm a real live wire [G]

---->  Over the chorus, you just play the chords...no lead
Joomla SEF URLs by Artio