News Musica

Musica – News Mtv Italia

Le Notizie di MTV Italia

Cerca Artista o Canzone

X

Cerchi un testo di una canzone particolare ?


Paint It Black

Capo on 3rd fret
Intro, fingerpicked:

^     ^     ^     ^        ^     ^     ^     ^      ^   ^   ^   ^
e:--------0-----1-----3-----|--1-----0---------------|--------------------|
B:--3-----------------------|--3-----3-----3-----2---|--3---5-------0h2h3-|
G:--------------------------|--------2--2------------|--------------------|
D:-----0-----0-----0-----0--|-----0-----------0------|--------------------|
A:--------------------------|------------------------|--------------------|
E:--------------------------|------------------------|--------------------|

^   ^     ^
e:--0-------------||
B:------3p2p0-2---||
G:----------------||
D:----------------||
A:----------------||
E:----------------||

Verse:

^  ^     ^     ^
e:--1--|--------------------1--||
B:--3--|--------------------3--||
G:--2--|--------------------2--||
D:--0--|-----0-----0-----0--0--||
A:-----|--------0-----0-----0--||
E:-----|-----------------------||

^        ^     ^     ^        ^     ^     ^     ^
e:-----------------------------|--------------------------||
B:-----------------------------|--------------------------||
G:--0h2p0----------0-----------|--0-----------0h20--------||
D:--------2-----2-----2-----2--|-----2-----2--------3--2--||
A:-----------4-----------4-----|--------4-----------------||
E:-----------------------------|--------------------------||

Verse Melody:

^  ^  ^  ^     ^  ^  ^  ^     ^     ^  ^  ^     ^  ^       ^
e:--------------|--5-----------|-----------------|------------------||
B:-----5--7--8--|-----8--7--5--|--5h75--4--5--7--|--5--4h5p4p2h4----||
G:--------------|--------------|-----------------|------------------||
D:--------------|--------------|-----------------|------------------||
A:--------------|--------------|-----------------|------------------||
E:--------------|--------------|-----------------|------------------||

Chorus:

|  Dm    C     |  F     C     |  Dm          |  Dm          |
|  /  /  /  /  |  /  /  /  /  |  /  /  /  /  |  /  /  /  /  |

|  Dm    C     |  F     C     |  G           |  A           |
|  /  /  /  /  |  /  /  /  /  |  /  /  /  /  |  /  /  /  /  |
Joomla SEF URLs by Artio