News Musica

Musica – News Mtv Italia

Le Notizie di MTV Italia

Cerca Artista o Canzone

X

Cerchi un testo di una canzone particolare ?


Bad To The Bone

D||-------------------------------|--0--------------0--------------|
B||----------------0-----5--0--3\-|--0--------------0-----5--0--3\-|
G||----------------0--0--5--0--3\-|--0--------------0--0--5--0--3\-|
D||----------------0--0--5--0--3\-|--0--------------0--0--5--0--3\-|
G||-------------------------------|--------------------------------|
D||-------------------------------|--------------------------------|

--0--------------0--------------|--0--------------0----------------|
--0--------------0-----5--0--3\-|--0--------------0-----5--0--3/12-|
--0--------------0--0--5--0--3\-|--0--------------0--0--5--0--3/12-|
--0--------------0--0--5--0--3\-|--0--------------0--0--5--0--3/12-|
--------------------------------|----------------------------------|
--------------------------------|----------------------------------|

--0--------15\---0----------------|--0-------------------0--------------|
--0--------15\---0-------5--0--3\-|--0--11\---5/---12~---0-----5--0--3\-|
--0--------------0----0--5--0--3\-|--0--11\---5/---12~---0--0--5--0--3\-|
--0--------------0----0--5--0--3\-|--0--11\---5/---12~---0--0--5--0--3\-|
----------------------------------|-------------------------------------|
----------------------------------|-------------------------------------|

-------------12----------------------------|
--0--11/-12------12---------------5--0--3\-|
--0--11/-12----------12----12--0--5--0--3\-|
--0------------------------12--0--5--0--3\-|
-------------------------------------------|
-------------------------------------------|

On the day I was born....
--0-------------------0--------------||---0----------------------------|
--0--11\---5/---12~---0-----5--0--3\-||---0-------------------5--0--3\-|
--0--11\---5/---12~---0--0--5--0--3\-||*--0----------------0--5--0--3\-|
--0--11\---5/---12~---0--0--5--0--3\-||*--0----------------0--5--0--3\-|
-------------------------------------||--------------------------------|
-------------------------------------||--------------------------------|

5x
--0-----------------------------||--0-------------------------12--|
--0-------------------5--0--3\--||--0-------------------5--0/-12--|
--0----------------0--5--0--3\-*||--0----------------0--5--0/-12--|
--0----------------0--5--0--3\-*||--0----------------0--5--0/-----|
--------------------------------||--------------------------------|
--------------------------------||--------------------------------|

Solo

|-0---------12---------------------------------------------------------------|
|-0---------12---0------0--5--0---3--0-----------------------0-----0---------|
|-0---------------0------0--5--0---3--0---11/12-------12-----0--3--0---------|
|-0---------------0------0--5--0---3--0---11/12-------12-----0--3--0--3/4----|
|----------------------------------------------------------------------------|
|----------------------------------------------------------------------------|

|-----------12------------------------------/3--/3--/3--0-----------------|
|--------------12-------------------------0-/3--/3--/3--0--0--------------|
|--0--11/12---------12--12--0------0--/3---0-/3--/3--/3--0--0-------0--3--|
|--0--11/12-------------12--0--/3--0--/3---0-------------------/3---0-----|
|-------------------------------------------------------------------------|
|-------------------------------------------------------------------------|

|-------------------------------0-----------------------------------------|
|0--------------0---0-----------0-----------------------------------------|
|0--2/3-/3--/3--0---0-3---0/3---0---11//12-12--12-12-12-12-12-12-12-12-12-|
|0--2/3-/3--/3--0---0-3---0/3---0---11//12-12--12-12-12-12-12-12-12-12-12-|
|-------------------------------------------------------------------------|
|-------------------------------------------------------------------------|

|----12-----------------------------------12----------------------------12---|
|-12----12-----------------------------12----12---------------------12--12---|
|---------12-12-12-12-12-12-12-12-12----------12-12-12--12-12-12-12----------|
|---------12-12-12-12-12-12-12-12-12----------12-12-12--12-12-12-12----------|
|---------12-12-12----------------------------12-12-12--12-12-12-------------|
|----------------------------------------------------------------------------|

|----------------------------12--------------------------------------------|
|------12-12---------------12--12------------------------------------------|
|-12-12--12-12-12-12-12-12-12------12-12--12-12-12-12-12-12-12-12-12-12-12-|
|--------------12-12-12-12---------12-12--12-12-12-12-12-12-12-12-12-12-12-|
|---------------12-12-12---------------------------------------------------|
|--------------------------------------------------------------------------|

|-0---0--------0--0----------/12--0-------0-------------|
|-0---0--------0--0----0-----/12--0-------0--5--0----3--|
|-0---0----/4--0--0----0--0--/12--0-------0--5--0----3--|
|-0---0--------0--0----0--0-------0-------0--5--0----3--|end of solo
|-------------------------------------------------------|
|-------------------------------------------------------|

|--0----------------------------1--2--3---3---|
|--0----------------------------1--2--3---3---|
|--0--0--3--3-2---2-1----1--0---------0---0---|
|--0------------------------------------------|
|---------------------------------------------|
|---------------------------------------------|
Joomla SEF URLs by Artio