News Musica

Musica – News Mtv Italia

Le Notizie di MTV Italia

Cerca Artista o Canzone

X

Cerchi un testo di una canzone particolare ?


Seven Nation Army

Note: (The bass riffs can also be played by guitar w/ an octave pedal)

Verse Riff:
   E  E G E D C B    E  E G E D C B    E  E G E D C B    E  E G E D C B
G|----------------------------------------------------------------------|
D|------5-----------------5-----------------5-----------------5---------|(x10)
A|-7--7---7-5-3-2--/-7--7---7-5-3-2--/-7--7---7-5-3-2--/-7--7---7-5-3-2-|
E|-0-----------------0-----------------0-----------------0--------------|

Pre/Post - Chorus Riff: (Gtr)
   G G G G G G G G  A A A A A A A A
e|------------------0-0-0-0-0-0-0-0-|
B|------------------2-2-2-2-2-2-2-2-|
G|-4-4-4-4-4-4-4-4--2-2-2-2-2-2-2-2-|
D|-5-5-5-5-5-5-5-5--2-2-2-2-2-2-2-2-|
A|-5-5-5-5-5-5-5-5--0-0-0-0-0-0-0-0-|
E|-3-3-3-3-3-3-3-3------------------|
(Bass)
G|----------------------------------|
D|----------------------------------|
A|------------------0-0-0-0-0-0-0-0-|
E|-3-3-3-3-3-3-3-3------------------|

Chorus Riff:
(Gtr w/Distortion + 3 string slide)
   E  E   G   E  D  C   B
e|-0----------------------|
B|-9--9/-12-\-9-\7-\5--\4-|
G|-9--9/-12-\-9-\7-\5--\4-|
D|-9--9/-12-\-9-\7-\5--\4-|
A|-7--7/-10-\-7-\5-\3--\2-|
E|-0----------------------|
(Bass)
G|----------------|
D|------5---------|
A|-7--7---7-5-3-2-|
E|-0--------------|
(Gtr)
   E  E  G    E  D  C  D   C  B
e|-0----------------------------|
B|-9--9/-12-\-9-\7-\5-/7-\-5-\4-|
G|-9--9/-12-\-9-\7-\5-/7-\-5-\4-|
D|-9--9/-12-\-9-\7-\5-/7-\-5-\4-|
A|-7--7/-10-\-7-\5-\3-/5-\-3-\2-|
E|-0----------------------------|
(Bass)
G|--------------------|
D|------5-------------|
A|-7--7---7-5-3-5-3-2-|
E|-0------------------|

Solo: (Well that's why they call them solo's, cause your on your own"

Outro:
   E
e|-----------------------------------------------------------------------------|
B|-----------------------------------------------------------------------------|
G|-9-/-------------------------------------------------------------------------|
D|-9-/-------------------------------------------------------------------------|
A|-9-/-------------------------------------------------------------------------|
E|-7-/-------------------------------------------------------------------------|
(Bass)
e|-----------------------------------------------------------------------------|
B|-----------------------------------------------------------------------------|
G|-----------------------------------------------------------------------------|
D|-----------------------------------------------------------------------------|
A|-0-/-------------------------------------------------------------------------|
E|-----------------------------------------------------------------------------|
Joomla SEF URLs by Artio