News Musica

Musica – News Mtv Italia

Le Notizie di MTV Italia

Cerca Artista o Canzone

X

Cerchi un testo di una canzone particolare ?


Come Mai

INTRO (pianoforte):
  [FA]           [DO]        [SIb]      [FA]
e-----8-8----------8-8----------8--5-5---5--------5-
B--6-----------6-5---------------------8-------8----
G---------------------------5-----------------------
D-----------------------------8---------------------
A---------------------------------------------------
E---------------------------------------------------
  [SIb]       [FA]           [DO]     [FA]
e--6--5-5----5----------------5---------------------
B----------8---8---6--------6----8-8--6-6-6---------
G--------------------5----5-------------------------
D---------------------------------------------------
A---------------------------------------------------
E---------------------------------------------------
Joomla SEF URLs by Artio