Cerca Artista o Canzone

X

Cerchi un testo di una canzone particolare ?


Tieni Il Tempo

Lam      Fa       Do         Sol
Non c'è storia in questa città 
Lam     Fa           Do              Sol
nessuno si diverte e mai si divertirà 
Lam    Fa      Do           Sol
lascia perdere tutta questa gente
Lam   Fa         Do               Sol
e non credere di te non importa niente

STRUM: Lam Fa Do Sol Lam Fa Do Sol

e||-----|---------------|---------------|---------------------|
B||-----|---------------|---------------|---------------------|
G||-----|---------------|----7----7-9-9-|-9-7----7-9-7--------|
D||-7-7-|-7-9-7-9-10-10-|-10---10-------|-----10-------10-9-5-|
A||-----|---------------|---------------|---------------------|
E||-----|---------------|---------------|---------------------|

Lam         Fa            Do                      Sol
Sono sempre pronti a giudicare tutto quello che fai
Lam      Fa             Do            Sol
come ti vesti e con chi ti incontrerai
Lam          Fa       Do                 Sol
ma non te la prendere loro sono fatti così
Lam       Fa
devi solo credere
       Do                        Sol
che un giorno te ne andrai di quì.
       Lam             Fa            Do            Sol
Scendi nella strada balla e butta fuori quello che hai
       Lam            Fa
fai partire il ritmo quello giusto
Do                   Sol
datti una mossa e poi

RIT

         Lam  Fa      Do          Sol
Tieni il tempo con le gambe con le mani
         Lam  Fa      Do             Sol
tieni il tempo non fermarti fino a domani
         Lam  Fa    Do       Sol
tieni il tempo vai avanti e vedrai
         Lam  Fa            Do       Sol
tieni il tempo il ritmo non finisce mai

Lam              Fa   Do                       Sol
i muri grigi che vedi quando guardi fuori da qui
Lam             Fa    Do                    Sol
anche se non ci credi sono così belli per chi
Lam            Fa   Do           Sol
sa trovare i colori dentro nella testa
Lam                 Fa
e allora vattene fuori
Do              Sol
che sta per cominciare la festa

STRUM: Lam Fa Do Sol Lam Fa Do Sol

e||-----|---------------|---------------|---------------------|
B||-----|---------------|---------------|---------------------|
G||-----|---------------|----7----7-9-9-|-9-7----7-9-7--------|
D||-7-7-|-7-9-7-9-10-10-|-10---10-------|-----10-------10-9-5-|
A||-----|---------------|---------------|---------------------|
E||-----|---------------|---------------|---------------------|

Lam       Fa            Do         Sol
Non ti lasciare andare se non ti vuole più
Lam    Fa         Do             Sol
adesso se la tira ma non sa che tu
Lam            Fa           Do           Sol
stai quasi per decollare e quando volerai
Lam       Fa               Do        Sol
faranno a gara se fare un giro gli farai.
       Lam             Fa            Do            Sol
Scendi nella strada balla e butta fuori quello che hai
       Lam            Fa
fai partire il ritmo quello giusto
Do                   Sol
datti una mossa e poi

RIT

         Lam  Fa      Do          Sol
Tieni il tempo con le gambe con le mani
         Lam  Fa      Do             Sol
tieni il tempo non fermarti fino a domani
         Lam  Fa    Do       Sol
tieni il tempo vai avanti e vedrai
         Lam  Fa            Do       Sol
tieni il tempo il ritmo non finisce mai

...

STRUM: Lam Fa Do Sol Lam Fa Do Sol
Joomla SEF URLs by Artio