News Musica

Musica – News Mtv Italia

Le Notizie di MTV Italia

Cerca Artista o Canzone

X

Cerchi un testo di una canzone particolare ?


T.N.T.

Intro
  	   ||	     repeat         ||
E-|---|----||-----------------------||
B-|---|----||-----------------------||
G-|---|----||----------2------2-----||
D-|-2-|----||-2-----0--2---0--2--0--||
A-|-2-|----||-2-----0--0---0--0--0--||
E-|-0-|----||-0-----3------3(b)--3--||
   L.R.

	Verse: same as intro

		    PLAY THIS PART AFTER CHORUS
Chorus	            IS PLAYED FOR THE LAST TIME
E--||----------||--------------------------------------|
B--||----------||--------------------------------------|
G--||--2-------||------2-------------------------------|
D--||--2--0--2-||--0---2-------------------------------|
A--||--0--0--2-||--0---0-------------------------------|
E--||-----3--O-||--3-----------------------------------|
Joomla SEF URLs by Artio