News Musica

Musica – News Mtv Italia

Le Notizie di MTV Italia

Cerca Artista o Canzone

X

Cerchi un testo di una canzone particolare ?


Sweet Emotion

A             D      A
S w e e t   E m o -  t i o n

Guitar intro/chorus (Fig A)            Bass intro/chorus
 e---------------------------------
 b---------------------------------
 g---------------------------------  g---------12--------14------------------
 d---------5-----7---7-------------  d---------------------------12-11-14-14-
 a-0---0-0---0-0-------0-0-5p0-4h5-  a-12--12------12-12---------------------
 e---------------------------------  e---------------------------------------
   1 e + a 2 e + a 3 e + a 4 e + a     1 e + a 2 e +  a  3 e + a 4  e  +  a

Verse (Fig B)
 e---------------------------------
 b-3-------------------------------
 g-2---2-----2-------------2-------
 d-0---2-----2-------------2-------
 a-----0-----0-----3p0-----0-------
 e---------------------3-----------
   1 e + a 2 e + a 3 e + a 4 e + a

Between verses (Fig C)
 e[---------------------------------]3 ---------------------------------
 b[---------------------------------]3 ---------------------------------
 g[---------------------------------]3 ---------------------------------
 d[---------------------------------]3 ---------------------------------
 a[-5p3p0---------------------------]3 -5p3p0---------------------------
 e[-------0-2-2---0-3-3---0-4---5---]3 -------0-2-2---0-3-------4---5---
    1 e + a 2 e + a 3 e + a 4 e + a     1 e + a 2 e + a 3 e + a 4 e + a
Joomla SEF URLs by Artio