News Musica

Musica – News Mtv Italia

Le Notizie di MTV Italia

Cerca Artista o Canzone

X

Cerchi un testo di una canzone particolare ?


Walk This Way

INTRO:

E----------------------|----------------------------|
B----------------------|----------------------------|
D----------------------|----------------------------|
G-------2-------2------|-------2-------2------2-----|
A-0-1-2---0-1-2--------|-0-1-2---0-1-2--------------|
E-----------------0--x-|------------------3p0-------|

                        (fill 1)

E----------------------|----------------------------|
B----------------------|----------------------------|
D----------------------|------------------2---------|
G-------2-------2------|-------2-------2--2---------|
A-0-1-2---0-1-2--------|-0-1-2---0-1-2----0---------|
E-----------------0----|----------------------------|

VERSE:

E------------------------------------------------------------|
B------------------------------------------------------------|
D------------------------------------------------------------|
G--------------------------10--------------------------------|
A--------10----10-12-10-------10--10--13--10--12--10---------|
E-8-8-8-----------------8------------------------------------|

CHORUS:

E------------------------|--------------------------|
B---------------10-10-10~|---------------10-10-10~--|
D---------------8--8--8-~|---------------8--8--8-~--|
G------------------------|-10-12-13-----------------|
A-10-12-13---------------|-8--8--8------------------|
E-8--8--8----------------|--------------------------|

1st Solo:
                          hold--
E-11hb--------8h11p8----8-----------8------------------------------------|
B--------------------11---11fb--r11---11-8-------------------------------|
D------------------------------------------11p10p8-10----10-10fb---8~----|
G-----------------------------------------------------10-----------------|
A------------------------------------------------------------------------|
E------------------------------------------------------------------------|
  .  hold--                                             hold--
E----------------------------------|--------------------------------------|
B----10hb--r10-8----8--------------|--------------------11fb--r11---------|
D----------------10---11p10p8-10p8-| 10p8-11p10p8-10p8--------------7~----|
G-10-------------------------------|--------------------------------------|
A----------------------------------|--------------------------------------|
E----------------------------------|--------------------------------------|

2nd SOLO:
                               hold-                        hold---
E---------------------------------------|----------------------------------|
B-----------10--------------------------|-----8--5---5---------------------|
D-------9p8----8\7\5-7p5-7p5-7-7hb-r7p5-|--------5-------------------------|
G-10-10---------------------------------|-7/8------8----5-7-7hb----r7------|
A---------------------------------------|----------------------------------|
E---------------------------------------|----------------------------------|
            [ 3  ][ 3  ]    [ 3  ]             .
E---------------------------------------|-------------------------8--------|
B----------------------------8p5----5---|----------------------------------|
D----------5-8p5---8p5---5-8-----8-----8|p7p5--7--7hb-r7p5-7hb--5----------|
G------7/8-------8-----8----------------|----------------------------------|
A-3--3----------------------------------|-----------------------------0----|
E---------------------------------------|----------------------------------|
Joomla SEF URLs by Artio