Cerca Artista o Canzone

X

Cerchi un testo di una canzone particolare ?


Quello Che Non C'è

LAm
Ho questa foto di pura gioia
FA
E' di un bambino con la sua pistola
DO                 SOL
Che spara dritto, davanti a sè
LAm
A quello che non c'è

LAm
Ho perso il gusto, non ha sapore
FA
Quest'alito di angelo che mi lecca il cuore
DO                               SOL
Ma credo di camminare sull'acqua e
LAm
Su quello che non c'è

DO                 SOL
Arriva l'alba o forse no
FA                              SOL
A volte ciò che sembra alba non è
DO                                    SOL
Ma so che so camminare dritto sull'acqua e
LAm
Su quello che non c'è

LAm
Rivuoi la scelta, rivuoi il controllo
FA
Rivoglio le mie ali nere, il mio mantello
DO                                  SOL
La chiave della felicità  è la disobbedienza in sè
LAm
A quello che non c'è

DO                                     SOL
Perciò io maledico il modo in cui sono fatto
         FA                                   SOL
Il mio modo di morire sano e salvo dove m'attacco
       DO                                       SOL
Il mio modo vigliacco di restare sperando che ci sia
LAm
Quello che non c'è

LAm
Curo le foglie, saranno forti
FA
Se riesco ad ignorare che gli alberi son morti
DO                                      SOL
Ma questo è camminare dritto sull'acqua e
LAm
Su quello che non c'è

DO                               SOL
Ed ecco arriva l'alba so che è qui per me
FA                                 SOL
Meraviglioso come a volte ciò che sembra non è
DO        (*)          SOL
Fottendosi da sè, fottendomi da me
LAm
Per quello che non c'è

(*) Guitar 2:
-|--------------------------------|-
-|-12-----------------------------|-
-|------12----------------5-9-7\5-|-
-|----------------------7---------|-
-|--------------------------------|-
-|--------------------------------|-
Nh .    .

Interlude:
-|--------------------------------------------------------------------------|-
-|--------------------------------------------------------------------------|-
-|--------------------------------------------------------------------------|-
-|-2-/-7-9-11--11--9h11p9--------------2-/-7-9-11--11--9h11p9---------------|-
-|------------------------12-9-12-12\0------------------------12-9-12-12\0--|-
-|--------------------------------------------------------------------------|-

-|------------|-
-|------------|-
-|------------|-
-|------------|-
-|-9-12-11-12-|-
-|------------|-

-|--------------------------------------------------------------------------|-
-|--------------------------------------------------------------------------|-
-|--------------------------------------------------------------------------|-
-|-2-/-7-9-11--11--9h11p9--------------2-/-7-9-11--11--9h11p9---------------|-
-|------------------------12-9-12-12\0------------------------12-9-12-12\0--|-
-|--------------------------------------------------------------------------|-

-|------------|-
-|------------|-
-|------------|-
-|------------|- 2nd guitar play this distorted
-|-9-12-11-12-|-
-|------------|-

Riff :

LAm
-|-----0------0------------|------0------0-----------|-
-|-----1--1-1-1------------|------1--1-1-1-----------|-
-|-2---2--2-2-2--2-----0h2-|--2---2--2-2-2--2-----0--|-
-|-2---2--2-2----2-0h2-----|--2---2--2-2----2-0h2----|-
-|-0-------------0---------|--0-------------0--------|-
-|-------------------------|-------------------------|-

Tablature Keys:

h - hammer on
p - pull off
/ - slide up
\ - slide down
Joomla SEF URLs by Artio