Cerca Artista o Canzone

X

Cerchi un testo di una canzone particolare ?


Blackjack

Intro
LET RING THROUGHOUT
e------------------5-|
d--5-4-4-5-4---5-4-5-|
g-5---5-------5---5--|
d--------------------|
a--------------------|
e--------------------|

chorus riff

e---------------------------|
b---------------------------|
g-----------------xx-9-7----|
d-----------------xx-7-7----|
a---------5--3-0------------|
e---7-5-0----------------00-|

Verse riff1
e----------------------|
b----------------------|
g------------------7---|
d------------------x---|
a-77-7-7-77-7-7-7775---|
e-85-5-5-85-5-5-5855---|  x4

verse chords
 let ring
e-3----0-|
b-0----2-|
g-0----2-|
d-0----2-|
a-2----0-|
e-3----0-|

verse 1 riff once

pre chorus
 let ring

e--------------------------------|
b--------------------------------|
g--------------------------------|
d-----7--------------------------|
a-7---5---2-2-2-2-2-2-2-2-2-2222-|
e-8-------0-0-0-0-0-0-0-0-0-0000-|
 .=Pm       . .   . .   . . ..

breakdown/pre solo

e------------------|
b------------------|
g------------77-5--|
d------------55-5--|
a-2-2-3-2-2--------|
e-3p0-0-3-0--------|

solo

e------------------|
b---------------8--|
g-999-7------77-7--|
d-777-7-9-7--77----|
a------------------|
e------------------| x2

e---------------------------------------------------------|
b---------------------------------------------------------|
g-12p11p9-12p11p9-12p11p9-12p11p9-12p11p9-12p11-12b~~~~~~-|
d---------------------------------------------------------|
a---------------------------------------------------------|
e---------------------------------------------------------|

e-15p14p12-15p14p12-15p14p12-15p14p12-/19b~21--|b
b----------------------------------------------|
g----------------------------------------------|
d----------------------------------------------|
a----------------------------------------------|
e----------------------------------------------|
Joomla SEF URLs by Artio