Cerca Artista o Canzone

X

Cerchi un testo di una canzone particolare ?


Diamond In The Rough

INTRO & CHORUS
d|--------------------------------------------|
A|--------------------------------------------|
F|----------7----7--5-7-----------------------|
C|--2---5---7----7--5-7--5---7---2----2--0-2--|
G|--2---5---5----5--5-5--5---7---2----2--0-2--|
D|--0---3----------------3---5---0----0--0-0--|

VERSE
Guitar 1
d|------------------------|
A|------------------------|
F|------------------------|
C|--2-------5--7--5-7--7--|
G|--2-------5--7--5-7--7--|
D|--0-------3--5--3-5--5--|

Guitar 2
d|--------------------------|
A|--------------------------|
F|--------------------------|
C|--2--2--2--2--2--2--2--2--|
G|--2--2--2--2--2--2--2--2--|
D|--0--0--0--0--0--0--0--0--|

Guitar 1
d|-----------------------------------------------|
A|-----------------------------------------------|
F|--2--------5--7--5-7--7--2-------5--7--5-7-----|
C|--2--------5--7--5-7--7--2-------5--7--5-7--5--|
G|--0--------3--5--3-5--5--0-------3--5--3-5--5--|
D|--------------------------------------------3--|

Guitar 2

d|------------------------------------------
A|------------------------------------------
F|----2-2-2---2-2-2-2-2-2-2-2-2-2-2---2-2-2-
C|----2-2-2---2-2-2-2-2-2-2-2-2-2-2---2-2-2-
G|--3-0-0-0---0-0-0-0-0-0-0-0-0-0-0-3-0-0-0-
D|----------3-------------------------------

-----------------------|
-----------------------|
--2-2-2-2-2-2-2-2-2----|
--2-2-2-2-2-2-2-2-2-5--|
--0-0-0-0-0-0-0-0-0-5--|
3-------------------3--|

Guitar 1 & 2
d|----------------------|
A|----------------------|
F|--4--------2-------7--|
C|--4--------2----5--7--|
G|--2--------0----5--5--|
D|----------------3-----|
Joomla SEF URLs by Artio