News Musica

Musica – News Mtv Italia

Le Notizie di MTV Italia

Cerca Artista o Canzone

X

Cerchi un testo di una canzone particolare ?


Runnin' Wild

| pm = palm mute
| / = slide up
|  = slide down
| h = hammer-on
| p = pull-off
| ~ = vibrato
| + = harmonic
| x = Mute note
| b = Bend
| r  Release bend

Intro: (Gtr2)             (pm throughout)
 ..........................................................|
e|---------------------------------------------------------|
B|---------------------------------------------------------|
G|---------------------------------------------------------|
D|---------------------------------------------------------|
A|---------------------------------------------------------|
E|-1-1-1-1-1-1-1-1-1-1-1-1-1-1-1-1-1-1-1-1-1-1-1-1-1-1-1-1-|
(repeat as needed)

Intro: (Gtr1)
    D#5                   F5       D#5                   F5
e|----------------------------------------------------------|
B|----------------------------------------------------------|
G|-8-8-8--------------------------8-8-8------------------10-|
D|-8-8-8------3-----3------3------8-8-8-----3-----3------10-|
A|-6-6-6------1-6-3-1-6-3--3------6-6-6-----1-6-3-1-6-3--8--|
E|--------------4-1---4-1--1------------------4-1---4-1-----|

      pm    pm   pm                                 pm    pm  pm
      ...   ...   . D#5                   F5        ...   ...  .
e|--------------------------------------------------------------|
B|--------------------------------------------------------------|
G|-----------------8-8-8----------------------------------------|
D|-----3-----3---3-8-8-8-----3-----3------3----------3----3---3-|
A|-----3-----3---3-6-6-6-----1-6-3-1-6-3--3----------3----3---3-|
E|-1-1---1-1---1---------------4-1---4-1--1-------1-1--1-1--1---|
                                       pm     pm
    D#5                       F5       ...    ...
e|--------------------------------------------------------|
B|--------------------------------------------------------|
G|-8-8-8----------------------10--------------------------|
D|-8-8-8---------3-----3------10------------3-----3-------|
A|-6-6-6---------1-6-3-1-6-3--8-------------3-----3---1---|
E|-----------------4-1---4-1------------1-1---1-1---1---4-|

Verse:
  pm   pm         pm   pm         pm   pm         pm   pm
   .   ...         .   ...         .   ...         .   ...
e|-------------------------------------------------------------|
B|-------------------------------------------------------------|
G|-------------------------------------------------------------|
D|---3-----3---86---3-----3---86---3-----3---86---3-----3---86-|
A|---3-----3---86---3-----3---86---3-----3---86---3-----3---86-|
E|-1-1-1-1-1-1-64-1-1-1-1-1-1-64-1-1-1-1-1-1-64-1-1-1-1-1-1-64-|2x

Cry me a river...
Refrain:           pm   pm         pm   pm
  D#5        F5     .   ...         .   ...          D#5     F5
e|-------------------------------------------------------------|
B|-------------------------------------------------------------|
G|-8---------3----------------------------------------8------3-|
D|-8---------3--------3-----3---86---3-----3---86-----8------3-|
A|-6---------1--------3-----3---86---3-----3---86-----6------1-|
E|------------------1-1-1-1-1-1-64-1-1-1-1-1-1-64--------------|

 I gotta get away...
          C5
e|-------------------------|
B|-------------------------|
G|-5--5--5-5-5-5-5-5-5-5---|
D|-5--5--5-5-5-5-5-5-5-5-3-|
A|-3--3--3-3-3-3-3-3-3-3-3-|
E|-----------------------1-|

Chorus: Runnin...
    F5                      D#5
e|------------------------------------------------|
B|------------------------------------------------|
G|-10-10--------------------8-8-------------------|
D|-10-10-------3-----3------8-8-------3-----3-----|
A|-8--8--------1-6-3-1-6-3--6-6-------1-6-3-1-6-3-|
E|---------------4-1---4-1--------------4-1---4-1-|2x

Verse:
  pm   pm         pm   pm         pm   pm         pm   pm
   .   ...         .   ...         .   ...         .   ...
e|-------------------------------------------------------------|
B|-------------------------------------------------------------|
G|-------------------------------------------------------------|
D|---3-----3---86---3-----3---86---3-----3---86---3-----3---86-|
A|---3-----3---86---3-----3---86---3-----3---86---3-----3---86-|
E|-1-1-1-1-1-1-64-1-1-1-1-1-1-64-1-1-1-1-1-1-64-1-1-1-1-1-1-64-|2x

Cry me a river...
Refrain:         pm   pm         pm   pm
  D#5      F5     .   ...         .   ...         D#5     F5
e|----------------------------------------------------------|
B|----------------------------------------------------------|
G|-8-------3---------------------------------------8------3-|
D|-8-------3--------3-----3---86---3-----3---86----8------3-|
A|-6-------1--------3-----3---86---3-----3---86----6------1-|
E|----------------1-1-1-1-1-1-64-1-1-1-1-1-1-64-------------|

 I gotta get away...
          C5
e|-------------------------|
B|-------------------------|
G|-5--5--5-5-5-5-5-5-5-5---|
D|-5--5--5-5-5-5-5-5-5-5-3-|
A|-3--3--3-3-3-3-3-3-3-3-3-|
E|-----------------------1-|

Chorus: Runnin...
    F5                      D#5
e|------------------------------------------------|
B|------------------------------------------------|
G|-10-10--------------------8-8-------------------|
D|-10-10-------3-----3------8-8-------3-----3-----|
A|-8--8--------1-6-3-1-6-3--6-6-------1-6-3-1-6-3-|
E|---------------4-1---4-1--------------4-1---4-1-|4x

Solo:(Gtr1)
Hey hey hey!          Hey Hey Hey!
e|----------10-8----------------------------------|
B|----------11-9----------------------------------|
G|---------------10~~~------------10-8------------|
D|-------------------------------------10-8-6~~-3-|
A|------------------------------------------------|
E|------------------------------------------------|

Hey hey hey!        Hey Hey Hey
e|-------------------------------------12b13r~~---|
B|------------------------------12b13r------------|
G|------------------------------13b14r------------|
D|------------------------------------------------|
A|----------6-8-8~~~------------------------------|
E|------------------------------------------------|

Solo: (Gtr2)
Hey Hey Hey!
    F5                   F5
e|------------------------------------------|
B|------------------------------------------|
G|------------------------------------------|
D|-3-3-3---3-----3------3-3-3---3-----3-----|
A|-3-3-3---1-6-3-1-6-3--3-3-3---1-6-3-1-6-3-|
E|-1-1-1-----4-1---4-1--1-1-1-----4-1---4-1-|4x

    D#5                   F5       D#5                   F5
e|---------------------------------------------------------|
B|---------------------------------------------------------|
G|-8-8-8--------------------------8-8-8-----------------10-|
D|-8-8-8------3-----3------3------8-8-8----3-----3------10-|
A|-6-6-6------1-6-3-1-6-3--3------6-6-6----1-6-3-1-6-3--8--|
E|--------------4-1---4-1--1-----------------4-1---4-1-----|

No I wont turn around...
  pm   pm         pm   pm         pm   pm         pm   pm
   .   ...         .   ...         .   ...         .   ...
e|----------------------------------------------------------------|
B|----------------------------------------------------------------|
G|--------------------------------------------------------------8-|
D|---3-----3---86---3-----3---86---3-----3---86---3-----3---86--8-|
A|---3-----3---86---3-----3---86---3-----3---86---3-----3---86--6-|
E|-1-1-1-1-1-1-64-1-1-1-1-1-1-64-1-1-1-1-1-1-64-1-1-1-1-1-1-64----|

Cry me a river...
Refrain:        pm   pm         pm   pm
  D#5     F5     .   ...         .   ...         D#5     F5
e|---------------------------------------------------------|
B|---------------------------------------------------------|
G|-8------3---------------------------------------8------3-|
D|-8------3--------3-----3---86---3-----3---86----8------3-|
A|-6------1--------3-----3---86---3-----3---86----6------1-|
E|---------------1-1-1-1-1-1-64-1-1-1-1-1-1-64-------------|

 I gotta get away...
          C5
e|-------------------------|
B|-------------------------|
G|-5--5--5-5-5-5-5-5-5-5---|
D|-5--5--5-5-5-5-5-5-5-5-3-|
A|-3--3--3-3-3-3-3-3-3-3-3-|
E|-----------------------1-|

Chorus: Runnin...
    F5                      D#5
e|------------------------------------------------|
B|------------------------------------------------|
G|-10-10--------------------8-8-------------------|
D|-10-10-------3-----3------8-8-------3-----3-----|
A|-8--8--------1-6-3-1-6-3--6-6-------1-6-3-1-6-3-|
E|---------------4-1---4-1--------------4-1---4-1-|8x

Outro:
Hey Hey Hey!....
    F5      A#5 D#5      F5           A#5
e|--------------------------------------------|
B|--------------------------------------------|
G|----------8---------------------8-----------|
D|-3-3-3--3-8-6-8-8-6-3--3-3-3--3-8-6-8-8-6-3-|
A|-3-3-3--3-6-6-8-8-6-3--3-3-3--3-6-6-8-8-6-3-|
E|-1-1-1--1---4-6-6-4-1--1-1-1--1---4-6-6-4-1-|4x

   F5
e|-----|
B|-----|
G|-----|
D|-3-3-|
A|-3-3-|
E|-1-1-|
Joomla SEF URLs by Artio