Cerca Artista o Canzone

X

Cerchi un testo di una canzone particolare ?


Be Yourself

Intro:

Bm
e|--0--------------0---||--0--------------0---||
B|--1--1h2p1------0----||--1--1h2p1------0----||
G|--2------------2-----||--2------------2-----||
D|--2-----------2------||--2-----------2------||
A|--0----------0-------||--0----------0-------||
E|------------1--------||------------1--------||

Main Riff

e|----------------------------------------------------|
B|-12-------10---10/14--15---17/14--14--15--/-10--12--|
G|-------11-------------------------------------------|
D|----------------------------------------------------|
A|----------------------------------------------------|
E|----------------------------------------------------|

e|----------------------------------------------------|
B|-----------10--10/14--15---14\10--10------14--/-12--|
G|-------11------------------------------11-----------|
D|----------------------------------------------------|
A|----------------------------------------------------|
E|----------------------------------------------------|

Pre Chorus:
e|-5-|
B|-5-|
G|-7-|
D|-7-|
A|-5-|
E|-5-| x8

Chorus:

   Bm    D    G    Esus2
e|--0----0---------0---|
B|--1----1---------3---|
G|--2----0----2----2---|
D|--2----2----3----0---|
A|--0----3----3--------|
E|------------1--------| x2

2nd Verse
2nd Chorus

Solo:

Wah Wah effect turned up high for this!

e|-------------------------------------------------------------------------------------|
B|-------------------------------------------------------------------------------------|
G|-------------------------------------------------------------------------------------|
D|-------------------------------------------------------------------------------------|
A|-------------------------------------------------------------------------------------|
E|--5-7-8-10-12-10-8-7--5-7-8-10-9-7-5-3--5-7-8-10-12-13-12-13-15-13-12-10-12-12-12-12-|

e|-------------------------------------------------------------------------------------|
B|------------------------------------------------------------------------10-----------|
G|-------------------------------------------------------------------9-11----11-9------|
D|-7h9-9-9-9-12p9-9-9---7h9-9-9-9-12p9-9-9---7h9-9-9-9-12p9-9-9---12--------------12-9-|
A|-------------------------------------------------------------------------------------|
E|-------------------------------------------------------------------------------------|

e|-------------------------------------------------------------------------------------|
B|-------------------------------------------------------------------------------------|
G|------------7h9-9-9-----------7h9-9-9----10b11-9~-10b11-9~-10b11-9-7-9-7-------------|
D|--7h9-9-9-9---------7h9-9-9-9--------------------------------------------9-7-9-------|
A|-------------------------------------------------------------------------------------|
E|-------------------------------------------------------------------------------------|

Bridge: 

    G          A          Bm         F    E    D    Bm
e|-------1----------3----------5--------------------------|
B|------1----------3----------5---------------------------|
G|-----2----------4----------5-------9----7----5----2-----|
D|----3----------5----------7--------9----7----5----2-----|
A|---3----------5----------7---------7----5----3----0-----|
E|--1----------3----------5-------------------------------|  x3

Pre Chorus x2
3rd Chorus with solo playing in the background

End on:
e|-1-|
B|-1-|
G|-2-|
D|-3-|
A|-3-|
E|-1-|
Joomla SEF URLs by Artio