Cerca Artista o Canzone

X

Cerchi un testo di una canzone particolare ?


Cochise

| /  slide up
| \  slide down
| h  hammer-on
| p  pull-off
| ~  vibrato
| +  harmonic
| x  Mute note

I saw them play live. On the Connan O'Brian show Tom played it like this.
Im writing this song in order to.

  Intro Use slap back delay muffle the strings and slap'em over an over then
do this. Wah wah toe down.
e|---------------------------------------------------------------------------|
B|0--------------------------------------------------------------------------|
G|0--------------------------------------------------------------------------|
D|2--------------------------------------------------------------------------|
A|2--------------------------------------------------------------------------|
E|xpickscrape----------------------------------------------------------------|

  Main Riff/Verse distortion
e|---------------------------------------------------------------------------|
B|---------------------------------------------------------------------------|
G|---------------------------------------------------------------------------|
D|---------------------------------------------------------------------------|
A|-7-5---5------------7-5----------------------------------------------------|
E|-----7---7--3-0---------7-3-0----------------------------------------------|

  Chourus   dist.
e|---------------------------------------------------------------------------|
B|---------------------------------------------------------------------------|
G|---------------------------------------------------------------------------|
D|---------------------------------------------------------------------------|
A|-7-7-5---------------------------------------------------------------------|
E|-------3-0-3-3h5-5---------------------------------------------------------|

  Pre verse thing
e|---------------------------------------------------------------------------|
B|---------------------------------------------------------------------------|
G|-2b-2b-2b-2b/--14b 14b 14b 14b 14b 14b-------------------------------------|
D|---------------------------------------------------------------------------|
A|---------------------------------------------------------------------------|
E|---------------------------------------------------------------------------|

  Main Riff/Verse distortion
e|---------------------------------------------------------------------------|
B|---------------------------------------------------------------------------|
G|---------------------------------------------------------------------------|
D|---------------------------------------------------------------------------|
A|-7-5---5------------7-5----------------------------------------------------|
E|-----7---7--3-0---------7-3-0----------------------------------------------|

  Chourus   dist.
e|---------------------------------------------------------------------------|
B|---------------------------------------------------------------------------|
G|---------------------------------------------------------------------------|
D|---------------------------------------------------------------------------|
A|-7-7-5---------------------------------------------------------------------|
E|-------3-0-3-3h5-5---------------------------------------------------------|

  Bridge wah wah effect
e|---------------------------------------------------------------------------|
B|---------------------------------------------------------------------------|
G|--4----4-------------------------------------------------------------------|
D|----------------2----2-----------------------------------------------------|
A|----2----2-----------------------------------------------------------------|
E|------------------0---0----------------------------------------------------|

Chourus   dist. use rear pick up
e|---------------------------------------------------------------------------|
B|---------------------------------------------------------------------------|
G|---------------------------------------------------------------------------|
D|---------------------------------------------------------------------------|
A|-7-7-5---------------------------------------------------------------------|
E|-------3-0-3-3h5-5---------------------------------------------------------|
Joomla SEF URLs by Artio