News Musica

Musica – News Mtv Italia

Le Notizie di MTV Italia

Cerca Artista o Canzone

X

Cerchi un testo di una canzone particolare ?


Like A Stone

Intro / Verse: (with vibrato, chorus)
e |---------------|---------------|---------------|---------------|
B |---------------|---------------|---------------|---------6--5--|
G |--5------------|--7------------|-------4-------|---------------|
D |-------7-------|-------5-------|--2------------|--3------------|
A |---------------|---------------|---------------|---------------|
E |---------------|---------------|---------------|---------------|

Am          G
On a cobweb afternoon
E                 F
In a room full of emptiness
Am           G
By a freeway I confess
E                 F
I was lost in the pages
Am        G
Of a book full of death
E                 F
Reading how we'll die alone
Am                G
And if we're good we'll lay to rest
E           F
Anywhere we want to go

(chorus)
Am      C     G         Am
In your house I long to be
Am      C    G      Am
Room by room patiently
Am   F            Am
I'll wait for you there
G      Am         F            Am
Like a stone I'll wait for you there
E
Alone

Am
On my deathbed
G
I will pray
E            F
To the gods and the angels
Am              G
Like a pagan to anyone
E                   F
Who will take me to heaven
Am           G
To a place I recall
E              F
I was there so long ago
Am
The sky was bruised
G
The wine was bled
E                    F
And there you led me on

(chorus)
Am      C     G         Am
In your house I long to be
Am      C    G      Am
Room by room patiently
Am   F            Am
I'll wait for you there
G      Am         F            Am
Like a stone I'll wait for you there
E     E
Alone,Alone.......

F        C
And on I read
E                 F
Until the day was done
Fm     Dm7
And I sat in regret
E                   Am
Of all the things I've done
F                 C
For all that I've blessed
E             F
And all that I've wronged
Fm              Dm7
In dreams until my death
E
I will wander on

Repeat chorus

Guitar Solo:
(Insane effects, bend into notes with whammy bar)
e |--17---------19-|--20----------|--22-------20--19-|--17--------|
B |----------------|--------------|------------------|------------|
G |----------------|--------------|------------------|------------|
D |----------------|--------------|------------------|------------|
A |----------------|--------------|------------------|------------|
E |----------------|--------------|------------------|------------|

e |--17---------19-|---------------|--20--22--24--24----|
B |----------------|--20-----------|--------------------|
G |----------------|---------------|--------------------|
D |----------------|---------------|--------------------|
A |----------------|---------------|--------------------|
E |----------------|---------------|--------------------|

(With whammy pedal boosted to 1 octave, wah-wah)
e |----------------| x 4
B |----------------|
G |-17--16---------|
D |---------17--14-|
A |----------------|
E |----------------|

e |----------------|----------------|----------------|----------|
B |----------------|----------------|----------------|----------|
G |----------------|---------12--14-|-16--17--16--17-|-16-------|
D |-------------12-|-14--15---------|----------------|----------|
A |-12--14--15-----|----------------|----------------|----------|
E |----------------|----------------|----------------|----------|
Joomla SEF URLs by Artio