Cerca Artista o Canzone

X

Cerchi un testo di una canzone particolare ?


Show Me How To Live

*N.B.* La prima corda è in Re // Tuning: Drop D (D, A, D, G, B, E)

Intro: Distorted let ring the chords
E|-------------------------------------------------------|
B|-3-------------3-------------3-------------3-----------|
G|-2-------------2-------------2-------------2-----------|
D|-0------2------0------2------0------2------0------2----|
A|--------2-------------2-------------2-------------2----|
D|--------2-------------2-------------2-------------2----|

Riff:
The X means that you do a left hand muted on the second fret
E|-------------------------------------------------------------
B|-------------------------------------------------------------
G|-------------------------------------------------------------
D|-------2-----------------------------------------------------
A|-----2-------------------------------------------------------
D|-0h2------X-X--0--2--X-X--0--2--X-X--7h8-7--X-X--5-2-X-2-0---

E|-------------------------------------|
B|-------------------------------------|
G|-------------------------------------| repeat 2 times
D|---------2---------------------------|
A|-------2-----------------------------|
D|-0-0h2------X-X--0--2--X-X--0-2------|

At the end of the riff:
E|---------------------
B|---------------------
G|--------------------- left hand muted
D|-X-X-X---X-X-X-X-X---
A|-X-X-X---X-X-X-X-X---
D|-X-X-X---X-X-X-X-X---

Solo:
Repeat many times At the end of the solo:
E|-0-0-0-0-0-0-0-0-0-0-0-0-0-0-0-0ù-/-----------------
B|----------------------------------/-----------------
G|----------------------------------/-----------------
D|----------------------------------/-----2-----------
A|----------------------------------/-----2-let ringù–
D|----------------------------------/-----2-----------
Joomla SEF URLs by Artio