News Musica

Musica – News Mtv Italia

Le Notizie di MTV Italia

Cerca Artista o Canzone

X

Cerchi un testo di una canzone particolare ?


Feeling Better

INTRO:
[DO]  [LAm]       [SOL#]  [SOL]
e-----------------|-----------------|
B-----5-------1---|-----------------|
G-----------------|-----5-------4---|
D---5-------2-----|-----------------|
A-3-----3-0-----0-|---6-------5-----|
E-----------------|-4-----4-3-----3-|
[DO]   [LAm]      [FAm]  [SOL]
e-----------------|-----------------|
B-----5-------1---|-----------------|
G-----------------|-----1-------4---|
D---5-------2-----|-----------------|
A-3-----3-0-----0-|---3-------5-----|
E-----------------|-1-----1-3-----3-|

[DO] [LAm] [REm] [SOL]

[DO] As far as I can [LAm] see
it's too much freedom [REm] for me
that's the way you [SOL] like it, ah[DO]ah
If she's so happy to [LAm] be
it's never enought [REm] for me
and that's the way I [SOL] like it, ahahah[DO]ah
You taste hunili[LAm]ty
without a re[REm]feree
that's the way they [SOL] like it, ahahah[DO]ah
No commodi[LAm]ties
not even a cup [REm] of tea
that's the way they [SOL] like it, oohhhhh

[DO] [DO/MI] Keep on feeling [FA] better
[SOL] love be pleased and s[DO]tay
[DO/MI] really doesn't [FA] metter
[SOL] wake me up to[DO]day
[DO/MI] taratattut[FA]tatta, [SOL] tarattattat[DO]ta
[DO/MI] [FA] [SOL]
[DO]  [LAm]   [SOL#]  [SOL]
[DO]   [LAm]  [FAm]  [SOL]

[DO] The particles I [LAm] breathe
the remedy I never [REm] need
that's the way you [SOL] like it, ah[DO]ah
The scent of modes[LAm]ty
the judge that walks in [REm] peace
that's the way they [SOL] like it, oohhhhh

[DO] [DO/MI] Keep on feeling [FA] better
[SOL] love be pleased and s[DO]tay
[DO/MI] really doesn't [FA] metter
[SOL] wake me up to[DO]day
[DO/MI] taratattut[FA]tatta, [SOL] tarattattat[DO]ta
[DO/MI] taratattut[FA]tatta, [SOL] tarattattat[DO]ta
[DO/MI] [FA] [SOL] [DO] (x3)

[DO] Not even [LAm] when
I run on p[SOL#]ri__[SOL]___[DO]_de
I'll change and [LAm] rearrange my [FAm] ki___[SOL]__nd
(x2)

(ripeti INTRO)
Joomla SEF URLs by Artio