News Musica

Musica – News Mtv Italia

Le Notizie di MTV Italia

Cerca Artista o Canzone

X

Cerchi un testo di una canzone particolare ?


Little Black Submarines

Intro

   Am
e|---------------0---------------------0---------------------------|
B|-----1-------------1-----------1---------------1-------1-------0h|
G|-----------2-----------2---0h2-------------2-------2-------2-----|
D|-----2-------2-------2-------2---------------2-------2-------2---|
A|-0-------0-------0-------0-------0---0---0-------0-------0-------|
E|-----------------------------------------------------------------|

Verse

   Am              G               D               A
e|-------------------------------------2---------------------------|
B|h1---1---------0-----0-----0---0-----------3---0h2---2---------0h|  
G|-----------2-------------------------2---------------------2-----|  
D|-----2-------2-------0-------0---0-----------0-------2-------2---|
A|-0-------0-------------------------------0-------0-------0-------|
E|-----------------3-------3---------------------------------------|

   Am              G               A
e|-------------------------------------------------------0---------|
B|h1---1---------0-----0---------0-----2---------2-----------2-----|
G|-----------2---------------0---------------2-------2-----------0h|
D|-----2-------2-------0-------0-------2-------2-------2-------2---|
A|-0-------0-----------------------0-------0-------0-------0-------|
E|-----------------3-------3---------------------------------------|

   Am              G               D               A
e|-------------------------------------2---------------------------|
B|-----1---------0-----0---------0-----------3---0h2---2---------0h|  
G|h2---------2---------------0---------2-------2-------------2-----|  
D|-----2-------2-------0-------0---0-------0-----------2-------2---|
A|-0-------0---------------------------------------0-------0-------|
E|-----------------3-------3---------------------------------------|

   Am              G               A
e|-------------------------------------------------------0---------|
B|h1---1---------0-----0---------0-----2---------2-----------2-----|
G|-----------2---------------0---------------2-------2-----------0h|
D|-----2-------2-------0-------0-------2-------2-------2-------2---|
A|-0-------0-----------------------0-------0-------0-------0-------|
E|-----------------3-------3---------------------------------------| 

Chorus

   Am              G               D               A           C/B
e|-------------------------------------2---------------------------|
B|-----1---------0-----0---------0-----------3---0h2---2-----2---0-|  
G|h2---------2---------------0---------2-------2-------------------|  
D|-----2-------2-------0-------0---0-------0-----------2-----------|
A|-0-------0---------------------------------------0-------0---2---|
E|-----------------3-------3---------------------------------------|

   C               D               A
e|---------------------2---------------------------------0---------|
B|-----1---------0-----------3---0h2---2---------2---------------0h|
G|-----------0---------2---------------------2-------2-------2-----|
D|-----2-------2---0-----------0-------2-------2-------2-------2---|
A|-3-------3---------------0-------0-------0-------0-------0-------|
E|-----------------------------------------------------------------|

   Am               G              D               A
e|-----0-------------------------------2---------------------------|
B|h1-------------0-----0---------0-----------3---0h2---2---------0-|
G|-----------2---------------0---------2-------2-------------2-----|
D|-------------2-------0-------0---0-------0-----------2-------2---|
A|-0---0---0---------------------------------------0-------0-------|
E|------------------3-------3--------------------------------------|

   C               D               A                           C/B
e|---------------------2---------------------------------0---------|
B|-----1---------0-----------3---0h2---2---------2-----------2---0-|
G|-----------0---------2---------------------2-------2-------------|
D|-----2-------2---0-----------0-------2-------2-------2-----------|
A|-3-------3---------------0-------0-------0-------0-------0---2---|
E|-----------------------------------------------------------------|

   C               D               A
e|---------------------2-------------------------------------------|
B|-----1---------0-----------3---0h2---2---------2-------2-------2-|
G|-----------0---------2---------------------2-------2-------2-----|
D|-----2-------2---0-------0---0-------2-------2-------2-------2---|
A|-3-------3-----------------------0-------0-------0-------0-------|
E|-----------------------------------------------------------------|

   A
e|---------------------------------|
B|-----2---------2-------2---------|
G|-----------2-------2-------2---0h|
D|-----2-------2-------2-------2---|
A|-0-------0-------0-------0-------|
E|---------------------------------|
Joomla SEF URLs by Artio