News Musica

Musica – News Mtv Italia

Le Notizie di MTV Italia

Cerca Artista o Canzone

X

Cerchi un testo di una canzone particolare ?


Lonely Boy

Tuning - Drop D

The intro has a giant whammy bar dive.
It is very hard to play this intro without one.

e|--------------------------|
B|--------------------------|
G|--------------------------|
D|--------------------------|
A|--------------------------|
D|--222-x-2-5(hb)-2-222-0v--|

The 5th fret has a half bend.
The last note (the open D) is the note where you dive the
whammy bar down to a low B.

Keyboard part: (x2)
e|-----------------------------------|
B|-----------------------------------|
G|-9-9--9p7--------------------------|
D|----------7-5-7---7-7--7p5---------|
A|----------------------------5-7-5--|
D|-----------------------------------|

e|---0-0--0-0-----------|
B|---0-0--0-0-----------|
G|---1-1--1-1-----------|
D|---2-2--2-2-----------| Repeat this until singing starts
A|----------------------|
D|------------2-5(hb)-2-|

Verse
E G A
e|---0-0-0-0-----3-3-3-3-----5-5-5-5---|
B|---0-0-0-0-----3-3-3-3-----5-5-5-5---|
G|---1-1-1-1-----4-4-4-4-----6-6-6-6---|
D|---2-2-2-2-----5-5-5-5-----7-7-7-7---|*Not tabbed in the right rhythm
A|-------------------------------------|
D|-2-----------5-----------7-----------|

Chorus
e|-------------------------------------|
B|-------------------------------------|
G|-------------------------------------|
D|-2-2-2-2-2-2-2-2-x-5-5-5-5-x-7-7-7-7-|*Not tabbed in right rhythm
A|-2-2-2-2-2-2-2-2-x-5-5-5-5-x-7-7-7-7-|
D|-2-2-2-2-2-2-2-2-x-5-5-5-5-x-7-7-7-7-|

CHORUS:

Em      G                                 A           C
whoahhh i got a love that keeps me waitin whoahhhh I got a love

     D                   Em               G
that keeps me waitin --- I'm a lonely boy I'm a lonelly boy

A          C                 D
whoahhh    I got a love that keeps me waitin

 VERSE 1:  (Same chord progression as chorus)

Well I'm so above you and it's plain to see but
I came to love you any way...
So you pulled my heart out and I don't mind leavin'
any old time you keep me waiting,
waiting, waiting

VERSE 2:

well your mama kept you but your daddy left you and
I shoulda' done you just the same
but I came to love you am I going to bleed?
any old time you keep me waiting, waiting, waiting

Key:
hb = halfbend (only bend the note slightly)
x = mute string
v = whammy bar dive
p = pull off
h = hammer on
Joomla SEF URLs by Artio