News Musica

Musica – News Mtv Italia

Le Notizie di MTV Italia

Cerca Artista o Canzone

X

Cerchi un testo di una canzone particolare ?


Charmless Man

Intro:
 |       |       |       |        |       |       |       |
|--------------------------------|----------------------------------|
|-----b-------------------------|-----b-----------------------------|
|----1214---------b-------------|----1214---------b-----------------|
|----------------1214------------|----------------1214--------------|
|X-----------X-------------------|X-----------X---------------------|
|------------------------151412--|------------------------151412----|

 |       |       |       |        |       |       |       |
|-----b--b---------------------|------------------------------------|
|----12141214--------------------|----------------------------------|
|----12141214--------------------|----------------------------------|
|--------------------14------12--|----12111211--------14------12----|
|--------------------------------|------------12--------------------|
|--------------------------------|----------------------------------|

 |       |       |       |        |       |       |       |
|--------------------------------|--------------------------------|
|--------------------------------|--------------------------------|
|--------------------------------|13--13--13--13--13--13--13--13--|
|----12111211----1214----14------|14--14--14--14--14--14--14--14--|
|------------12------------------|--------------------------------|
|--------------------------------|--------------------------------|

 |       |       |       |
|--------------------------------|
|--------------------------------|
|17--17--17--17--17--17--17--17--|
|16--16--16--16--16--16--16--16--|
|--------------------------------|
|--------------------------------|

1st Verse
 |       |       |       |        |       |       |       |
|--------------------------------|--------------------------------|
|--------------------------------|--------------------------------|
|--------------------------------|--------------------------------|
|------------------------9/------|----------------------------4---|
|------------------------7/------|----------------4-------7-------|
|--------------------------------|5-------------------------------|

 |       |       |       |        |       |       |       |
|----------------5---------------|--------------------------------|
|----5-------7-------------------|--------------------------------|
|--------------------6---4-------|--------------------------------|
|--------------------------------|----------------------------4---|
|--------------------------------|----------------4-------7-------|
|--------------------------------|5-------------------------------|

 |       |       |       |        |       |       |       |
|----------------5---------------|--------5---------------4-------|
|----5-------7-------------------|--------7---------------5-------|
|--------------------6---4-------|--------7---------------6-------|
|--------------------------------|0---0---------------------------|
|--------------------------------|----------------4---4-----------|
|--------------------------------|--------------------------------|

 |       |       |       |        |       |       |       |
|--------2---------------0-------|--------------------10----------|
|--------3---------------0-------|----------------5/7---------7/--|
|--------4---------------1-------|--------------------------------|
|--------------------------------|--------------------------------|
|2---2---------------------------|--------------------------------|
|----------------0---0-----------|5-------------------------------|

 |       |       |       |
|----9---------------------------|
|5-------------------------------|
|--------------------------------|
|--------------------------------|
|--------------------------------|
|--------------------------------|

Chorus:
 |       |       |       |        |       |       |       |
|--------------------------------|----------------------------------|
|-----b-------------------------|-----b-----------------------------|
|----1214---------b-------------|----1214---------b-----------------|
|----------------1214------------|----------------1214--------------|
|X-----------X-------------------|X-----------X---------------------|
|------------------------151412--|------------------------151412----|

 |       |       |       |        |       |       |       |
|-----b--b---------------------|------------------------------------|
|----12141214--------------------|----------------------------------|
|----12141214--------------------|----------------------------------|
|--------------------14------12--|----12111211--------14------12----|
|--------------------------------|------------12--------------------|
|--------------------------------|----------------------------------|

 |       |       |       |        |       |       |       |
|--------------------------------|----------------------------------|
|--------------------------------|-----b----------------------------|
|--------------------------------|----1214---------b----------------|
|----12111211----1214----14------|----------------1214--------------|
|------------12------------------|0-----------0---------------------|
|--------------------------------|------------------------151412----|

 |       |       |       |        |       |       |       |
|--------------------------------|-----b---b------------------------|
|-----b-------------------------|----12141214-----------------------|
|----1214---------b-------------|----12141214-----------------------|
|----------------1214------------|--------------------14------12----|
|0-----------0-------------------|----------------------------------|
|------------------------151412--|----------------------------------|

 |       |       |       |        |       |       |       |
|--------------------------------|----------------------------------|
|--------------------------------|----------------------------------|
|--------------------------------|-----------------b----------------|
|----12111211--------14------12--|----12111211----1214----14--------|
|------------12------------------|------------12--------------------|
|--------------------------------|----------------------------------|

 |       |       |       |        |       |       |       |
|--------------------------------|--------------------------------|
|--------------------------------|--------------------------------|
|13--13--13--13--13--13--13--13--|17--17--17--17--17--17--17--17--|
|14--14--14--14--14--14--14--14--|16--16--16--16--16--16--16--16--|
|--------------------------------|--------------------------------|
|--------------------------------|--------------------------------|

Bridge:
 |       |       |       |        |       |       |       |
|--------------------------------|--------------------------------|
|--------------------------------|--------------------------------|
|--------------------------------|----3-4-3-------3---------------|
|----------------------------4---|--------------------------------|
|----------------4-------7-------|------------4-------------------|
|5-------------------------------|--------------------------------|

 |       |       |       |        |       |       |       |
|--------------------------------|--------------------------------|
|--------------------------------|--------------------------------|
|--------------------------------|----3-4-3-------3---------------|
|----------------------------4---|--------------------------------|
|----------------4-------7-------|------------4-------------------|
|5-------------------------------|--------------------------------|

2nd Verse:
 |       |       |       |        |       |       |       |
|--------------------------------|----------------5---------------|
|--------------------------------|----5-------7-------------------|
|--------------------------------|--------------------6---4-------|
|----------------------------4---|--------------------------------|
|----------------4-------7-------|--------------------------------|
|5-------------------------------|--------------------------------|

 |       |       |       |        |       |       |       |
|--------------------------------|----------------5---------------|
|--------------------------------|----5-------7-------------------|
|--------------------------------|--------------------6---4-------|
|----------------------------4---|--------------------------------|
|----------------4-------7-------|--------------------------------|
|5-------------------------------|--------------------------------|

 |       |       |       |        |       |       |       |
|--------5---------------4-------|--------2---------------0-------|
|--------7---------------5-------|--------3---------------0-------|
|--------7---------------6-------|--------4---------------1-------|
|0---0---------------------------|--------------------------------|
|----------------4---4-----------|2---2---------------------------|
|--------------------------------|----------------0---0-----------|

 |       |       |       |        |       |       |       |
|--------------------10----------|----9---------------------------|
|----------------5/7---------7/--|5-------------------------------|
|--------------------------------|--------------------------------|
|--------------------------------|--------------------------------|
|--------------------------------|--------------------------------|
|5-------------------------------|--------------------------------|

Solo:
 |       |       |       |        |       |       |       |
|--------------------------------|----------------5---------------|
|--------------------------------|----5-------7-------------------|
|--------------------------------|--------------------6---4-------|
|----------------------------4---|--------------------------------|
|----------------4-------7-------|--------------------------------|
|5-------------------------------|--------------------------------|

 |       |       |       |        |       |       |       |
|--------------------------------|----------------5---------------|
|--------------------------------|----5-------7-------------------|
|--------------------------------|--------------------6---4-------|
|----------------------------4---|--------------------------------|
|----------------4-------7-------|--------------------------------|
|5-------------------------------|--------------------------------|

 |       |       |       |        |       |       |       |
|--------------------------------|--------------------7---12------|
|5---3---2---3---7---5---3---5---|9---7---5-7-5-------------------|
|--------------------------------|--------------------------------|
|--------------------------------|--------------------------------|
|--------------------------------|--------------------------------|
|--------------------------------|--------------------------------|

 |       |       |       |        |       |       |       |
|9---9---9---9---7---7-------5---|--------------------------------|
|10--10--10--10--7---7-------5---|--------10----------------------|
|--------------------------------|----------------6-7-6-7-6-------|
|--------------------------------|--------------------------------|
|--------------------------------|--------------------------------|

Finale:
 |       |       |       |        |       |       |       |
|--------------------------------|--------------------------------|
|--------------------------------|--------------------------------|
|--------------------------------|----3-4-3-------3---------------|
|----------------------------4---|--------------------------------|
|----------------4-------7-------|------------4-------------------|
|5-------------------------------|--------------------------------|

 |       |       |       |        |       |       |       |
|--------------------------------|--------------------------------|
|--------------------------------|--------------------------------|
|--------------------------------|----3-4-3-------3---------------|
|----------------------------4---|--------------------------------|
|----------------4-------7-------|------------4-------------------|
|5-------------------------------|--------------------------------|

 |       |       |       |        |       |       |       |
|--------------------------------|--------------------------------|
|--------------------------------|--------------------------------|
|--------------------------------|----3-4-3-------3---------------|
|----------------------------4---|--------------------------------|
|----------------4-------7-------|------------4-------------------|
|5-------------------------------|--------------------------------|

 |       |       |       |        |       |       |       |
|--------------------------------|--------------------------------|
|--------------------------------|--------------------------------|
|--------------------------------|--------------------------------|
|------------------------2-------|------------------------2-------|
|----------------4---------------|----------------2---------------|
|5---------------------------3---|--------3-----------------------|

 |       |       |       |        |       |       |       |
|--------------------------------|--------------------------------|
|--------------------------------|--------------------------------|
|--------------------------------|--------------------------------|
|--------------------2-----------|--------------------------------|
|------------------------4---2---|0-------------------------------|
|1-------1-------0---------------|--------------------------------|

Song Estructure:

Intro
Silence (X 7 measures)
1st Verse
Bridge
Chorus
Bridge
2nd Verse
Bridge
Chorus
Solo
Chorus
Finale
Joomla SEF URLs by Artio