News Musica

Musica – News Mtv Italia

Le Notizie di MTV Italia

Cerca Artista o Canzone

X

Cerchi un testo di una canzone particolare ?


I Walk The Line

  RIFF

D--------------------0----0--0---------------------- |
A--------0---0-0-2-4---0-------4-2-0---0-0-------2-2 |
E--0-2-4---0-------------------------0-----4-2-0---- |  

D----------1------------ |
A--------2-2-2-0-------2 |
E--0-2-4---------4-2-0-- |  

         B7                           E
I keep a close watch on this heart of mine
          B7                     E
I keep my eyes wide open all the time
           A                         E
I keep the ends out for the tie that binds
               B7               E
Because you're mine, I walk the line 

A--------0 | Mmmm....
E--0-2-4-- |  

Key of Bb (Play A ) 

          E7                   A
I find it very very easy to be true
         E7                          A
I find myself alone when each day is through
         D                       A
Yes I'll admit that I a fool for you
               E7               A
Because you're mine, I walk the line 

D----------0 | Mmmm....
A--0-0-2-4-- |  

Key of Eb (Play D ) 

           A7                       D
As sure as night is dark and day is light
           A7                      D
I keep you on my mind both day and night
         G                                D
And happiness I've known proves that it's right
               A7               D
Because you're mine, I walk the line 

D--0-0------ | Mmmm....
A------4-2-0 |  

Key of Bb (Play A ) 



             E7                     A
You've got a way to keep me on your side
            E7                          A
You give me cause for love that I can't hide
          D                             A
For you I know I'd even try to turn the tide
               E7               A
Because you're mine, I walk the line 

A--0-0------ | Mmmm....
E------4-2-0 |  

Key of F (Play E sing one octave lower) 

         B7                           E
I keep a close watch on this heart of mine
          B7                     E
I keep my eyes wide open all the time
           A                         E
I keep the ends out for the tie that binds
               B7               E
Because you're mine, I walk the line 

Mmmm.... 

OTHER INTRO VERSION: 

B------------------------------3-3--3-3-------------------- |
G----------2-2---2-2-----------2-2--2-2-----------2-2---2-2 |
D----------2-2---2-2---------0----------0-0-------2-2-2-2-2 |
A--------0-----------0-0-2-4-------0--------4-2-0---------- |
E--0-2-4-------0------------------------------------------- |  

G------------1-1---1-1------------2-2---2-2-------- |
D------------2-2---2-2------------1-1-1-1-1-------- |
A--0-0-----------2-----2-------2------------2-0---- |
E------4-2-0-------------0-2-4------------------4-2 |  

g----1-1---11---11---11---11---11---11---11---11---11 |
d----2-2---22---22---22---22---22---22---22---22---22 |
a--------2---------2---------2---------2---------2--- |
e--0----------0---------0---------0---------0-------- |
Joomla SEF URLs by Artio