News Musica

Musica – News Mtv Italia

Le Notizie di MTV Italia

Cerca Artista o Canzone

X

Cerchi un testo di una canzone particolare ?


I'm Shipping Up To Boston

Intro

e|:----------------------------------------------|
B|:-------------7-8-7-----12-10-8-10-8-7-8-7-----|
G|:-9--7-9--7-9-------9-7--------------------7-9-|
D|:----------------------------------------------|
A|:----------------------------------------------|
E|:----------------------------------------------|

e|-------------------------------------------------:|
B|---------------7-8-7----------------------7-8-12-:|
G|-7-9--7-9--7-9-------9-7-9--7-9--7-9--7-9--------:| (X3)
D|-------------------------------------------------:|
A|-------------------------------------------------:|
E|-------------------------------------------------:|

e|----------------------------------------------|
B|-------------7-8-7-----12-10-8-10-8-7-8-7-----|
G|-9--7-9--7-9-------9-7--------------------7-9-|
D|----------------------------------------------|
A|----------------------------------------------|
E|----------------------------------------------|

e|:------------------9-10-9-------------------------------9-10-14-|
B|:-12--10-12--10-12--------12-10-12--10-12--10-12--10-12---------|
G|:---------------------------------------------------------------|
D|:---------------------------------------------------------------|
A|:---------------------------------------------------------------|
E|:---------------------------------------------------------------|

e|------------------9-10-9-------14-12-10-12-10-9-10-9--------:|
B|-12--10-12--10-12--------12-10-----------------------10-12--:|
G|------------------------------------------------------------:|
D|------------------------------------------------------------:| (X2)
A|------------------------------------------------------------:|
E|------------------------------------------------------------:|
Joomla SEF URLs by Artio