News Musica

Musica – News Mtv Italia

Le Notizie di MTV Italia

Cerca Artista o Canzone

X

Cerchi un testo di una canzone particolare ?


Long Road To Ruin

C
Hey now don't make a sound
C                                 F
Say hey have you heard the news today
             F
One flag was taken down
         F                C
To raise another in its place
C
A heavy cross you bear
C                           F
A stubborn heart remains unchanged
F
No harm, no life, no love
F
No stranger singing in your name

Am        Gsus4/B
Maybe the season
    C                    Gsus4/B
The colors change in the valley skies
Am            Gsus4/B
Dear God I've sealed my fate
C
Running through hell
D
Heaven can wait

F
Long road to ruin
C
There in your eyes
F                     C   C  Gsus4/B
Under the cold streetlights
Am
No tomorrow
D              F
No dead end in sight

C
Let's say we take this town
C                       F
No king or queen of any state
                  F
Get up to shut it down
                               C
Open the streets and raise the gates

I know a wall to scale
C                        F
I know a field without a name

Head on without a care
F
Before it's way too late

Am        Gsus4/B
Maybe the season
    C                    Gsus4/B
The colors change in the valley skies
Am            Gsus4/B
Oh God I've sealed my fate
C
Running through hell
D
Heaven can wait

F
Long road to ruin
C
There in your eyes
F                     C   C  Gsus4/B
Under the cold streetlights
Am
No tomorrow
D              F
No dead end in sight

F
Long road to ruin
C
There in your eyes
F                     C   C  Gsus4/B
Under the cold streetlights
Am
No tomorrow
D              F
No dead end in sight

Cadd9          Gsus4            Cadd9
For every piece to fall in place
        Gsus4           Cadd9
Forever gone without a trace
        Gsus4
Your horizon takes its shape
Am7/G                  Gsus4
No turning back, don't turn that page

Am7           Gsus4/B      C
Come now, I'm leaving here tonight
              Gsus4/B      Am7
Come now, let's leave it all behind
             Gsus4/B
Is that the price you pay
C
Running through hell
C
Heaven can wait

SOLO
E  :-------------------------|-------------------|---------------------|
B  :-----8-8-----------------|------------8-8----|---------------------|
G  :-----------9b-7h9p7-\5-7-|5---------------9b-|7-9-7-5-----5-h7-p5--|
D  :-5/7---------------------|--7-5--5-/7--------|--------7-5---------7|
A  :-------------------------|-------------------|---------------------|
E  :-------------------------|-------------------|---------------------|

E  :------------------------------------|----------------------------|
B  :------------------------------------|----------------------------|
G  :5-----------------------------------|----------------------------|
D  :--7-p5---5-h7-p5---5-h7-p5----------|-----------------------5-h7-|
A  :-------7---------7---------7-5-h7-p-|5-h7-p--5---------5-h7------|
E  :-----------------------------------8|------8---8-5-8-8-----------|

E  :------------------|----------------------|--------------------|
B  :5-5------5-5------|----------------------|--------------------|
G  :5-5------5-5------|5-7b-7b-7b-7b-7b-7r---|5-7-5-h7-p5---------|
D  :----5-h7-----7-5--|----------------------|--------------------|
A  :------------------|----------------------|--------------------|
E  :------------------|----------------------|--------------------|

E  :------------------------|------------------|
B  :5--------5--------5-----|------------------|
G  :5--------5--------5-----|------------------|
D  :--7-p5-----7-p5-----7-p5|--5---------------|
A  :-------5--------5-------|5---7-p5---5------|
E  :------------------------|---------8---8-5--|

F
Long road to ruin
C
There in your eyes
F                     C   C  Gsus4/B
Under the cold streetlights
Am
No tomorrow
D              F
No dead end in sight

F
Long road to ruin
C
There in your eyes
F                     C   C  Gsus4/B
Under the cold streetlights
Am
No tomorrow
D              F
No dead end in sight

F
Long road to ruin
C
There in your eyes
F                     C   C  Gsus4/B
Under the cold streetlights
Am
No tomorrow
D              F
No dead end in sight
Joomla SEF URLs by Artio