News Musica

Musica – News Mtv Italia

Le Notizie di MTV Italia

Cerca Artista o Canzone

X

Cerchi un testo di una canzone particolare ?


The Pretender

Intro Riff

e||----------------7-------------|-----------------------------||
B||------------10-----10---------|--------10-----10-----10-----||
G||---------9-------------9------|---------9------9------9-----||
D||-----10-------------------10--|--------10-----10-----10-----||
A||--0---------------------------|--0----------------0------9--||
E||------------------------------|-----7------8----------------||

e||-----------------------------|----------------0-------------||
B||-------------10--------------|------------10-----10---------||
G||----------9------------------|---------9-------------9------||
D||------10---------------------|-----10-------------------10--|| x 3
A||---------------(9)-9b--9--8--|------------------------------||
E||-----------------------------|------------------------------||

Verse
Guitar 2
e||--0-0-2-0-3-0-5-0---0-2-0-3-0-5~-||
B||--5-5-5-5-5-5-5-5---5-5-5-5-5-5~-||
G||---------------------------------||
D||---------------------------------||
A||---------------------------------||
E||---------------------------------||

am                c
Keep you in the dark
                d     f
You know they all pretend
am                c
Keep you in the dark
            d   f
And so it all began
am
Send in your skeletons
c                                d    f
Sing as their bones go marching in... again
am
The need you buried deep
c                               d
The secrets that you keep are ever ready
f
Are you ready?
am
I'm finished making sense
c
Done pleading ignorance
        d   f
That whole defense
am
Spinning infinity, boy
c
The wheel is spinning me
       d
It's never-ending, never-ending
f
Same old story

chours:

am
What if I say I'm not like the others?
c                                   d
What if I say I'm not just another one of your plays?

You're the pretender
f
What if I say that I'll never surrender?

am
What if I say I'm not like the others?
c                                   d
What if I say I'm not just another one of your plays?

You're the pretender
f
What if I say that I'll never surrender?

Post Chorus
e||----------------------------------||
B||----------------------------------||
G||----------------2-------------2---|| x 1
D||--2-X-4-X-5-X-4-2-X-X-4-X-5-X-2---||
A||--0-0-0-0-0-0-0-0-0-0-0-0-0-0-0---||
E||----------------------------------||

verse:
am
In time or so i'm told
c                          d           f
I'm just another soul for sale... oh, well
am
The page is out of print
c
We are not permanent
d
We're temporary, temporary
f
Same old story

chourus:

am
What if I say I'm not like the others?
c                                   d
What if I say I'm not just another one of your plays?

You're the pretender
f
What if I say that I'll never surrender?

am
What if I say I'm not like the others?
c                                   d
What if I say I'm not just another one of your plays?

You're the pretender
f
What if I say that I'll never surrender?

Bridge Part 1
e||----------------------------------||
B||----------------------------------||
G||----------------2-------------2---|| x 6
D||--2-X-4-X-5-X-4-2-X-X-4-X-5-X-2---||
A||--0-0-0-0-0-0-0-0-0-0-0-0-0-0-0---||
E||----------------------------------||

Bridge Part 2
e||--------------------------||
B||--------------------------||
G||--------------------------|| x 4
D||--10~---10-9-----7--5-----||
A||--0~~---0--0--0--0--0-----||
E||--------------------------||  

Bridge Part 3
e||--------------------------||
B||--------------------------||
G||--------------------------|| x 4
D||-12----12-10-X--9--10-----||
A||-0--0--0--0--0--0--0--0---||
E||--------------------------||

Bridge Part 4
e||--------------------------||
B||--------------------------||
G||-----------12----14-------|| x 8
D||--14----14-X--X--X--12----||
A||--0--0--0--0--0--0--0-----||
E||--------------------------||

am
I'm the voice inside your head
c
You refuse to hear
am
I'm the face that you have to face
c
Mirrored in your stare
am
I'm what's left, I'm what's right
c
I'm the enemy
am
I'm the hand that will take you down
c
Bring you to your knees
d
So who are you?
f
Yeah, who are you?
d
Yeah, who are you?
f
Yeah, who are you?
am                c
Keep you in the dark
               d     f
You know they all pretend

chours:
 am
What if I say I'm not like the others?
c                                   d
What if I say I'm not just another one of your plays?

You're the pretender
f
What if I say that I'll never surrender?

am
What if I say I'm not like the others?
c                                   d
What if I say I'm not just another one of your plays?

You're the pretender
f
What if I say that I'll never surrender?

am
What if I say I'm not like the others?
c                                   d
What if I say I'm not just another one of your plays?

You're the pretender
f
What if I say that I'll never surrender?

am
What if I say I'm not like the others?
c                                   d
What if I say I'm not just another one of your plays?

You're the pretender
f
What if I say that I'll never surrender?
d           f
So who are you?
d              f
Yeah, who are you?
d               f
Yeah, who are you?

end with an am

[Foo Fighters]
Joomla SEF URLs by Artio