Elenco testi di canzoni con accordi

Cocaine

Categoria: J.J. Cale
(Chorus)
---------------------|
---------------------|
--9-9-7-9--9-7-------|
--9-9-7-9--9-7-------|
--7-7-5-7--7-5-------|
---------------------|

Fill(1)
---------------------|
---------------------|
---------------------|
-------------0-------|
--0h2p0h2p0----------|
---------------------|
Fill(2)
---------------------|
---------------------|
---------------------|
--0-----0------------|
----0h2---2-0--------|
---------------3-0---|
Fill(3)
---------------------|
---------------------|
--7------------------|
----9-7-5-6----------|
------------7-5------|
---------------------|
Fill(4)
----------------------|
----------------------|
--------0-------------|
------0-0-------------|
--0h2-----------------|
----------3v(vibrato--|
This is where he begins to sing.

And when he says:

"She don't lie, she don't lie, she don't lie.....Cocaine"

------------------------|
------------------------|
--9--7---5-5-4----------|
--9--7---5-5-4----------|(HOLD)
--7--5---3-3-2----------|
------------------------|
Joomla SEF URLs by Artio