News Musica

Musica – News Mtv Italia

Le Notizie di MTV Italia

Cerca Artista o Canzone

X

Cerchi un testo di una canzone particolare ?


Hysteria

Intro: Guitar
e|---------------------------------------------------------------------------|
B|-10ù12b13rb12-10-9---12b13rb12-10----12b13br12-10-----12b13br12b13br12-----|
G|---------------------------------10--------------9-------------------------|[x2]
D|---------------------------------------------------------------------------|
A|---------------------------------------------------------------------------|
E|---------------------------------------------------------------------------|

Verse 1
Am               Em
It's bugging me, grating me
G           F#
Twisting me around
Am
Yeah I'm endlessly
Em
Caving in
G                  F#
And turning inside out

Chorus

               C
'Cos I want it now____
          G
I want it know____
Dm                     Am
Give me your heart and your soul
                 C
And I'm breaking out____
             G
I'm breaking out____
Dm                     Am
Give me your complete control

(little solo)

Verse 2
Am               Em
It's holding me, morphing me
G                 F#
And forcing me to strive
Am              Em
To be endlessly cold within
G                F#
And dreaming I'm alive

Chorus

               C
'Cos I want it now____
          G
I want it know____
Dm                      Am
Give me your heart and your soul
                 C
And I'm breaking out____
             G
I'm breaking out____
Dm                     Am
Give me your complete control

Solo : 
e|-------12------13--------13-12------12------13------13-12---------13-|\
B|-10-10----10-10-----10-10--------9-9-----9-9-----9-9--------11-11----| \
G|---------------------------------------------------------------------|  |
D|---------------------------------------------------------------------|  |
A|---------------------------------------------------------------------|  |
E|---------------------------------------------------------------------|  |
                                                                          |  [2x]
e|-------14-------14-13--------12--------13---------13-12--------------|  |
B|-11-11----11-11--------10-10-----10-10------10-10--------------------|  |
G|---------------------------------------------------------------------|  |
D|---------------------------------------------------------------------|  |
A|---------------------------------------------------------------------| /
E|---------------------------------------------------------------------|/

e|-8-0-0ù-7-0-0ù-5-0-0ù-4-0-0ù-3-0-0ù-1-0-0-|
B|------------------------------------------|
G|------------------------------------------|
D|------------------------------------------|
A|------------------------------------------|
E|------------------------------------------|

e|---------------------------------------------------------------------------|
B|-12-------13-12-10-12------12-13-15------15-13-12-13------15-13-12-13------|
G|---13----------------13------------13---------------14----------------14---|
D|-----14----------------14------------14---------------14----------------14-|
A|---------------------------------------------------------------------------|
E|---------------------------------------------------------------------------|

e|---------------------------------------------------------------------------|
B|-13-12-10-12--------12-13-15b~~---15-13-12-13------------------------------|
G|-------------13------------------------------14----------------------------|
D|---------------14------------------------------14--------------------------|
A|---------------------------------------------------------------------------|
E|---------------------------------------------------------------------------|

Chorus
             C
And want you now____
           G
I want you now____
Dm                  Am
I'll feel my heart implode
                 C
And I'm breaking out____
         G
Escaping now____
Dm                Am
Feeling my faith erode

(Outro)
Joomla SEF URLs by Artio