News Musica

Musica – News Mtv Italia

Le Notizie di MTV Italia

Cerca Artista o Canzone

X

Cerchi un testo di una canzone particolare ?


Time Is Running Out

(You will be the death of me...)
e|--12-------11------------12-13-10------
B|-----13-10----13-10-9-12----------(12)-
G|---------------------------------------
D|---------------------------------------
A|---------------------------------------
E|---------------------------------------

Pre chorus (Bury it...)
e|--------------|
B|--------------|
G|----------5---|
D|-3--5--7--5---|
A|-3--5--7--3---|
E|-1--3--5------|
PM .  .  .  .

e|----------------|
B|----------------|
G|-12--10---8-----|
D|----------------|
A|-10--8----6-----| This part is also played during the chorus, listen close and
E|----------------|   you'll hear it.
Our time is

Chorus
e|--1--3---5--3----|
B|--1--3---5--3----|
G|--2--4---5--5----|
D|--3--5---7--5----|
A|--3--5---7--3----|
E|--1--3---5-------|

e|------------------|
B|------------------|
G|------------------|
D|------------------|
A|-----3--------5---|
E|-1-1---1--3-3---3-|

Mini solo before second verse (fast picking)
e|--------------------------|
B|--------------------------|
G|-9------8----------9-10-7-|
D|---10-7---10-7-6-9--------|
A|--------------------------|
E|--------------------------|

Verse 2
e|---------------------------------------------|
B|---------------------------------------------|
G|---------------------------------------------|
D|-2-2-5-2--4-4-2-4--2-2-9-2-------------------|
A|-2-2-5-2--4-4-2-4--2-2-9-2------3--------5---|
E|-0-0-3-0--2-2-0-2--0-0-7-0--1-1---1--3-3---3-|
(Easier if you just play the bass notes)

Pre Chorus 2
e|---------|
B|---------|
G|--14--12-| (he might be constantly playing them or alternating between the
D|---------|                         notes, I'm not sure)
A|--12--10-|
E|---------|  X4

e|----------------|
B|----------------|
G|-12--10---9-----|
D|----------------|
A|-10--8----7-----|
E|----------------|
Our time is

e|--1--3---5--3----|
B|--1--3---5--3----|
G|--2--4---5--5----|
D|--3--5---7--5----|
A|--3--5---7--3----|
E|--1--3---5-------|  X2

(ooh-ooh-ooh yeah yeah yeah)
E|--------0--------|                               e|-------|
B|--------0--------|                               B|-------|
G|--7-----2--------|                               G|---1---|
D|--7-----2--------|                               D|---2---|
A|--5-----0--------|                               A|---2---|
E|-----------------|      X3  On the fourth time   E|---0---|

Pre Chorus 3
e|---------|
B|---------|
G|--14--12-| (he might be constantly playing them or alternating between the
D|---------|                                              notes, I'm not sure)
A|--12--10-|
E|---------|  X4

e|----------------
B|----------------
G|-12--10---9-----
D|----------------
A|-10--8----7-----
E|----------------
Our time is

e|--1--3---5--3----
B|--1--3---5--3----
G|--2--4---5--5----
D|--3--5---7--5----
A|--3--5---7--3----
E|--1--3---5-------  X2

Outro (fast picking)
e|--------------|
B|--------------|
G|-9--8--7--5---|
D|--------------|
A|--------------|
E|--------------|
Joomla SEF URLs by Artio