News Musica

Musica – News Mtv Italia

Le Notizie di MTV Italia

Cerca Artista o Canzone

X

Cerchi un testo di una canzone particolare ?


You Know I'm No Good

Intro:

(Drums)

(Bass):

e|-----------------|-----------------|
B|-----------------|-----------------|
G|-----------------|-----------------|
D|-----------------|-----------------|
A|--5-5-------3-4--|--5-5-------3-4--|
E|-------5-5-------|-------5-5-------| (x2)

Verse 1:

Dm                          Gm
 Meet you downstairs in the bar and heard,
     A7                         Dm
Your rolled up sleeves and your skull t-shirt.

        Dm                     Gm
You say why did you do it with him today?
    A7                      Dm
And sniff me out like I was Tanqueray.

Bridge 1:

Gm
 'Cos you're my fella, my guy,
E7
 Hand me your Stella and fly.
F
 By the time I'm out the door,
    E7                A7
You tear me down like Roger Moore.

Chorus 1:

Dm                 Am
 I cheated myself,
       E7     Am
Like I knew I would.
  Dm             Am
I told ya, I was trouble;
    E7               Am
You know that I'm no good.

Break:

(n.c)

(Baritone Sax Riff):

e|------------------|
B|------------------|
G|------------------|
D|------------------|
A|--0--2-3-2--------|
E|------------5--0--|

Verse 2:

Dm                    Gm
 Upstairs in bed with my ex boy,
A7                       Dm
 He's in the place but I can't get joy.

Dm                      Gm
 Thinking of you in the final throws;
A7               Dm
 This is when my buzzer goes.

Bridge 2:

Gm
 Run out to meet your chips and bitter,
E7
 You say when we're married 'cos you're not bitter.
F
 There'll be none of him no more,
  E7                   A7
I cried for you on the kitchen floor.

Chorus 2:

Dm                 Am
 I cheated myself,
       E7     Am
Like I knew I would.
  Dm             Am
I told ya, I was trouble;
    E7               Am
You know that I'm no good.

(Baritone Sax Riff):

e|------------------|
B|------------------|
G|------------------|
D|------------------|
A|--0--2-3-2--------|
E|------------5--0--|

Horn Interlude:

Dm  Am  E7  Am (x2)

(Horns Play):

e|----------------|--------------|--------------|
B|----------------|-----------5--|--5-----------|
G|--7--7b9--5-----|-----5--------|-----7--5-----|
D|-------------7--|--7-----7-----|-----------7--|
A|----------------|--------------|--------------|
E|----------------|--------------|--------------|

e|-----------|----------------|--------------|--------------|
B|-----------|----------------|-----------5--|--5-----------|
G|-----5-----|--7--7b9--5-----|-----5--------|-----7--5-----|
D|--7-----7--|-------------7--|--7-----7-----|-----------7--|
A|-----------|----------------|--------------|--------------|
E|-----------|----------------|--------------|--------------|

e|---------------|
B|---------------|
G|-----5------7--|
D|--7-----7------|
A|---------------|
E|---------------|

Verse 3:

Dm                 Gm
 Sweet reunion, Ja-maica and Spain;
A7                 Dm
 We're like how we were again.
Dm                   Gm
 I'm in the tub; you on the seat,
A7                   Dm
 Lick your lips as I soak my feet.

Bridge 3:

Gm
 Then you notice lickle carpet burn,
E7
 My stomach drops yeah and my guts churn.
F
 You shrug and it's the worst,
   E7              A7
To truly stuck the knife in first.

Chorus 3:

Dm                 Am
 I cheated myself,
       E7     Am
Like I knew I would.
  Dm             Am
I told ya, I was trouble;
    E7               Am
You know that I'm no good.

Chorus 2:

Dm                 Am
 I cheated myself,
       E7     Am
Like I knew I would.
  Dm             Am
I told ya, I was trouble;
    E7               Am
You know that I'm no good.

Outro:

Dm  Am  E7  Am

(Horns Play):

e|----------------|--------------|--------------|
B|----------------|-----------5--|--5-----------|
G|--7--7b9--5-----|-----5--------|-----7--5-----|
D|-------------7--|--7-----7-----|-----------7--|
A|----------------|--------------|--------------|
E|----------------|--------------|--------------|

e|-----------|----------------|--------------|--------------|
B|-----------|----------------|-----------5--|--5-----------|
G|-----5-----|--7--7b9--5-----|-----5--------|-----7--5-----|
D|--7-----7--|-------------7--|--7-----7-----|-----------7--|
A|-----------|----------------|--------------|--------------|
E|-----------|----------------|--------------|--------------|

(Repeat to Fade)
Joomla SEF URLs by Artio